ISO-10303-21;
HEADER;
FILE_DESCRIPTION (( 'STEP AP214' ),
    '1' );
FILE_NAME ('FM1016-10.step',
    '2021-04-21T15:50:13',
    ( '' ),
    ( '' ),
    'SwSTEP 2.0',
    'SolidWorks 2020',
    '' );
FILE_SCHEMA (( 'AUTOMOTIVE_DESIGN' ));
ENDSEC;

DATA;
#1 = DIRECTION ( 'NONE',  ( 1.000000000000000000, 0.000000000000000000, 0.000000000000000000 ) ) ;
#2 = VECTOR ( 'NONE', #40, 1000.000000000000000 ) ;
#3 = PLANE ( 'NONE',  #7 ) ;
#4 = FACE_OUTER_BOUND ( 'NONE', #257, .T. ) ;
#5 = EDGE_LOOP ( 'NONE', ( #69, #238, #55, #170 ) ) ;
#6 = DIRECTION ( 'NONE',  ( -2.438967143433287424E-16, -1.000000000000000000, 0.000000000000000000 ) ) ;
#7 = AXIS2_PLACEMENT_3D ( 'NONE', #188, #71, #141 ) ;
#8 = ORIENTED_EDGE ( 'NONE', *, *, #52, .T. ) ;
#9 = VECTOR ( 'NONE', #20, 1000.000000000000000 ) ;
#10 = CARTESIAN_POINT ( 'NONE',  ( -0.2500499950009997807, 0.05000000000000006523, -3.299999999999999822 ) ) ;
#11 = ORIENTED_EDGE ( 'NONE', *, *, #179, .T. ) ;
#12 = ORIENTED_EDGE ( 'NONE', *, *, #78, .F. ) ;
#13 =( NAMED_UNIT ( * ) PLANE_ANGLE_UNIT ( ) SI_UNIT ( $, .RADIAN. ) );
#14 = SURFACE_SIDE_STYLE ('',( #33 ) ) ;
#15 = EDGE_CURVE ( 'NONE', #222, #154, #221, .T. ) ;
#16 = DIRECTION ( 'NONE',  ( 0.000000000000000000, 0.000000000000000000, 1.000000000000000000 ) ) ;
#17 = ORIENTED_EDGE ( 'NONE', *, *, #48, .T. ) ;
#18 = ORIENTED_EDGE ( 'NONE', *, *, #84, .F. ) ;
#19 = VECTOR ( 'NONE', #123, 1000.000000000000000 ) ;
#20 = DIRECTION ( 'NONE',  ( 0.000000000000000000, 0.000000000000000000, 1.000000000000000000 ) ) ;
#21 = DIRECTION ( 'NONE',  ( 1.000000000000000000, 0.000000000000000000, 0.000000000000000000 ) ) ;
#22 = EDGE_CURVE ( 'NONE', #201, #222, #135, .T. ) ;
#23 = PRESENTATION_LAYER_ASSIGNMENT (  '', '', ( #186 ) ) ;
#24 = EDGE_CURVE ( 'NONE', #147, #242, #124, .T. ) ;
#25 = DIRECTION ( 'NONE',  ( -1.000000000000000000, 0.000000000000000000, 0.000000000000000000 ) ) ;
#26 = CARTESIAN_POINT ( 'NONE',  ( 0.2500499950009997807, 0.04999999999999994033, -3.299999999999999822 ) ) ;
#27 = CARTESIAN_POINT ( 'NONE',  ( -0.2550000000000000044, 3.122849337825750543E-17, -0.2550000000000000044 ) ) ;
#28 = CARTESIAN_POINT ( 'NONE',  ( 0.2550000000000000044, 0.000000000000000000, -0.2550000000000000044 ) ) ;
#29 = DIRECTION ( 'NONE',  ( 1.000000000000000000, -2.438967143433287424E-16, -0.000000000000000000 ) ) ;
#30 = ORIENTED_EDGE ( 'NONE', *, *, #195, .T. ) ;
#31 = CARTESIAN_POINT ( 'NONE',  ( 0.2500499950009997807, 0.04999999999999994033, -3.299999999999999822 ) ) ;
#32 = ORIENTED_EDGE ( 'NONE', *, *, #259, .F. ) ;
#33 = SURFACE_STYLE_FILL_AREA ( #269 ) ;
#34 = ORIENTED_EDGE ( 'NONE', *, *, #195, .F. ) ;
#35 = SURFACE_STYLE_USAGE ( .BOTH. , #14 ) ;
#36 = AXIS2_PLACEMENT_3D ( 'NONE', #211, #49, #1 ) ;
#37 = ORIENTED_EDGE ( 'NONE', *, *, #22, .F. ) ;
#38 = VERTEX_POINT ( 'NONE', #180 ) ;
#39 = COLOUR_RGB ( '',0.7921568627450980005, 0.8196078431372548767, 0.9333333333333333481 ) ;
#40 = DIRECTION ( 'NONE',  ( -0.000000000000000000, -0.000000000000000000, 1.000000000000000000 ) ) ;
#41 = LINE ( 'NONE', #67, #273 ) ;
#42 = DIRECTION ( 'NONE',  ( 0.000000000000000000, 0.000000000000000000, -1.000000000000000000 ) ) ;
#43 = CARTESIAN_POINT ( 'NONE',  ( 0.000000000000000000, 0.000000000000000000, -0.2550000000000000044 ) ) ;
#44 = AXIS2_PLACEMENT_3D ( 'NONE', #260, #113, #25 ) ;
#45 = MECHANICAL_DESIGN_GEOMETRIC_PRESENTATION_REPRESENTATION (  '', ( #176 ), #218 ) ;
#46 = FILL_AREA_STYLE ('',( #228 ) ) ;
#47 = LINE ( 'NONE', #258, #100 ) ;
#48 = EDGE_CURVE ( 'NONE', #201, #262, #41, .T. ) ;
#49 = DIRECTION ( 'NONE',  ( 0.000000000000000000, 0.000000000000000000, 1.000000000000000000 ) ) ;
#50 = PRODUCT_DEFINITION_FORMATION_WITH_SPECIFIED_SOURCE ( 'ANY', '', #149, .NOT_KNOWN. ) ;
#51 = CARTESIAN_POINT ( 'NONE',  ( 0.000000000000000000, 0.000000000000000000, -3.299999999999999822 ) ) ;
#52 = EDGE_CURVE ( 'NONE', #242, #201, #299, .T. ) ;
#53 = ORIENTED_EDGE ( 'NONE', *, *, #15, .F. ) ;
#54 = CARTESIAN_POINT ( 'NONE',  ( -0.2500499950009997807, 0.05000000000000006523, -2.029999999999999805 ) ) ;
#55 = ORIENTED_EDGE ( 'NONE', *, *, #52, .F. ) ;
#56 = CARTESIAN_POINT ( 'NONE',  ( -0.2500499950009997807, 0.05000000000000006523, -3.299999999999999822 ) ) ;
#57 = ORIENTED_EDGE ( 'NONE', *, *, #200, .T. ) ;
#58 = EDGE_CURVE ( 'NONE', #287, #38, #159, .T. ) ;
#59 = VECTOR ( 'NONE', #190, 1000.000000000000000 ) ;
#60 = VERTEX_POINT ( 'NONE', #184 ) ;
#61 = ORIENTED_EDGE ( 'NONE', *, *, #290, .F. ) ;
#62 =( NAMED_UNIT ( * ) SI_UNIT ( $, .STERADIAN. ) SOLID_ANGLE_UNIT ( ) );
#63 = ADVANCED_FACE ( 'NONE', ( #250 ), #111, .T. ) ;
#64 = AXIS2_PLACEMENT_3D ( 'NONE', #254, #98, #232 ) ;
#65 = DIRECTION ( 'NONE',  ( 0.000000000000000000, 0.000000000000000000, 1.000000000000000000 ) ) ;
#66 = MANIFOLD_SOLID_BREP ( 'Fillet1', #267 ) ;
#67 = CARTESIAN_POINT ( 'NONE',  ( -0.2500499950009997807, -0.05000000000000006523, -3.299999999999999822 ) ) ;
#68 = ADVANCED_FACE ( 'NONE', ( #116 ), #251, .T. ) ;
#69 = ORIENTED_EDGE ( 'NONE', *, *, #204, .T. ) ;
#70 = CARTESIAN_POINT ( 'NONE',  ( 0.2500499950009997807, 0.04999999999999994033, -3.299999999999999822 ) ) ;
#71 = DIRECTION ( 'NONE',  ( 0.000000000000000000, 1.000000000000000000, 0.000000000000000000 ) ) ;
#72 = DIRECTION ( 'NONE',  ( 0.000000000000000000, 0.000000000000000000, 1.000000000000000000 ) ) ;
#73 = DIRECTION ( 'NONE',  ( 0.000000000000000000, 0.000000000000000000, -1.000000000000000000 ) ) ;
#74 = ORIENTED_EDGE ( 'NONE', *, *, #235, .T. ) ;
#75 = VECTOR ( 'NONE', #145, 1000.000000000000000 ) ;
#76 = CARTESIAN_POINT ( 'NONE',  ( 0.000000000000000000, 0.000000000000000000, -3.299999999999999822 ) ) ;
#77 = DIRECTION ( 'NONE',  ( 0.000000000000000000, 0.000000000000000000, -1.000000000000000000 ) ) ;
#78 = EDGE_CURVE ( 'NONE', #287, #270, #241, .T. ) ;
#79 = UNCERTAINTY_MEASURE_WITH_UNIT (LENGTH_MEASURE( 1.000000000000000082E-05 ), #133, 'distance_accuracy_value', 'NONE');
#80 = CARTESIAN_POINT ( 'NONE',  ( -0.2500499950009997807, -0.05000000000000006523, -3.299999999999999822 ) ) ;
#81 = ORIENTED_EDGE ( 'NONE', *, *, #208, .F. ) ;
#82 = PRODUCT_CONTEXT ( 'NONE', #95, 'mechanical' ) ;
#83 = VERTEX_POINT ( 'NONE', #277 ) ;
#84 = EDGE_CURVE ( 'NONE', #60, #125, #210, .T. ) ;
#85 = CARTESIAN_POINT ( 'NONE',  ( 0.000000000000000000, 0.000000000000000000, 0.000000000000000000 ) ) ;
#86 = AXIS2_PLACEMENT_3D ( 'NONE', #302, #42, #272 ) ;
#87 =( NAMED_UNIT ( * ) SI_UNIT ( $, .STERADIAN. ) SOLID_ANGLE_UNIT ( ) );
#88 = CIRCLE ( 'NONE', #207, 0.2550000000000000044 ) ;
#89 = ORIENTED_EDGE ( 'NONE', *, *, #200, .F. ) ;
#90 = DIRECTION ( 'NONE',  ( 1.000000000000000000, 0.000000000000000000, 0.000000000000000000 ) ) ;
#91 = EDGE_CURVE ( 'NONE', #242, #83, #160, .T. ) ;
#92 = DIRECTION ( 'NONE',  ( 1.000000000000000000, 0.000000000000000000, 0.000000000000000000 ) ) ;
#93 = DIRECTION ( 'NONE',  ( -1.000000000000000000, 1.224646799147353207E-16, 0.000000000000000000 ) ) ;
#94 = CARTESIAN_POINT ( 'NONE',  ( -0.2500499950009997807, -0.05000000000000006523, -2.029999999999999805 ) ) ;
#95 = APPLICATION_CONTEXT ( 'automotive_design' ) ;
#96 = FACE_OUTER_BOUND ( 'NONE', #246, .T. ) ;
#97 = EDGE_CURVE ( 'NONE', #147, #270, #132, .T. ) ;
#98 = DIRECTION ( 'NONE',  ( 0.000000000000000000, 0.000000000000000000, 1.000000000000000000 ) ) ;
#99 = CARTESIAN_POINT ( 'NONE',  ( 0.2500499950009997807, 0.04999999999999994033, -2.029999999999999805 ) ) ;
#100 = VECTOR ( 'NONE', #143, 1000.000000000000000 ) ;
#101 = ORIENTED_EDGE ( 'NONE', *, *, #24, .T. ) ;
#102 = CARTESIAN_POINT ( 'NONE',  ( -0.2550000000000000044, 3.122849337825750543E-17, -2.029999999999999805 ) ) ;
#103 = ORIENTED_EDGE ( 'NONE', *, *, #259, .T. ) ;
#104 = FILL_AREA_STYLE_COLOUR ( '', #151 ) ;
#105 = ORIENTED_EDGE ( 'NONE', *, *, #97, .T. ) ;
#106 = ADVANCED_FACE ( 'NONE', ( #206 ), #298, .T. ) ;
#107 = AXIS2_PLACEMENT_3D ( 'NONE', #196, #77, #167 ) ;
#108 = CIRCLE ( 'NONE', #285, 0.2550000000000000044 ) ;
#109 = ORIENTED_EDGE ( 'NONE', *, *, #24, .F. ) ;
#110 = PRESENTATION_LAYER_ASSIGNMENT (  '', '', ( #176 ) ) ;
#111 = CYLINDRICAL_SURFACE ( 'NONE', #263, 0.2550000000000000044 ) ;
#112 = ADVANCED_FACE ( 'NONE', ( #249 ), #3, .F. ) ;
#113 = DIRECTION ( 'NONE',  ( 0.000000000000000000, 0.000000000000000000, -1.000000000000000000 ) ) ;
#114 = VECTOR ( 'NONE', #155, 1000.000000000000000 ) ;
#115 = SURFACE_STYLE_USAGE ( .BOTH. , #231 ) ;
#116 = FACE_OUTER_BOUND ( 'NONE', #165, .T. ) ;
#117 = PLANE ( 'NONE',  #266 ) ;
#118 = CARTESIAN_POINT ( 'NONE',  ( 0.2500499950009997807, 0.04999999999999994033, -2.029999999999999805 ) ) ;
#119 = AXIS2_PLACEMENT_3D ( 'NONE', #294, #128, #174 ) ;
#120 = DIRECTION ( 'NONE',  ( -0.000000000000000000, -0.000000000000000000, -1.000000000000000000 ) ) ;
#121 = DIRECTION ( 'NONE',  ( 1.000000000000000000, 0.000000000000000000, 0.000000000000000000 ) ) ;
#122 = ORIENTED_EDGE ( 'NONE', *, *, #163, .T. ) ;
#123 = DIRECTION ( 'NONE',  ( 1.000000000000000000, -2.438967143433287424E-16, -0.000000000000000000 ) ) ;
#124 = CIRCLE ( 'NONE', #86, 0.2550000000000000044 ) ;
#125 = VERTEX_POINT ( 'NONE', #99 ) ;
#126 =( LENGTH_UNIT ( ) NAMED_UNIT ( * ) SI_UNIT ( .MILLI., .METRE. ) );
#127 = ORIENTED_EDGE ( 'NONE', *, *, #204, .F. ) ;
#128 = DIRECTION ( 'NONE',  ( 0.000000000000000000, 1.000000000000000000, 0.000000000000000000 ) ) ;
#129 = ORIENTED_EDGE ( 'NONE', *, *, #91, .F. ) ;
#130 = UNCERTAINTY_MEASURE_WITH_UNIT (LENGTH_MEASURE( 1.000000000000000082E-05 ), #264, 'distance_accuracy_value', 'NONE');
#131 = ORIENTED_EDGE ( 'NONE', *, *, #146, .T. ) ;
#132 = LINE ( 'NONE', #225, #9 ) ;
#133 =( LENGTH_UNIT ( ) NAMED_UNIT ( * ) SI_UNIT ( .MILLI., .METRE. ) );
#134 = AXIS2_PLACEMENT_3D ( 'NONE', #191, #282, #73 ) ;
#135 = CIRCLE ( 'NONE', #44, 0.2550000000000000600 ) ;
#136 = AXIS2_PLACEMENT_3D ( 'NONE', #181, #65, #157 ) ;
#137 = DIRECTION ( 'NONE',  ( -0.000000000000000000, -0.000000000000000000, -1.000000000000000000 ) ) ;
#138 = DIRECTION ( 'NONE',  ( 0.000000000000000000, 0.000000000000000000, 1.000000000000000000 ) ) ;
#139 = DIRECTION ( 'NONE',  ( -1.000000000000000000, 0.000000000000000000, 0.000000000000000000 ) ) ;
#140 = ADVANCED_FACE ( 'NONE', ( #96 ), #197, .T. ) ;
#141 = DIRECTION ( 'NONE',  ( 0.000000000000000000, -0.000000000000000000, 1.000000000000000000 ) ) ;
#142 = EDGE_LOOP ( 'NONE', ( #34, #37, #17, #57, #129, #109, #105, #122 ) ) ;
#143 = DIRECTION ( 'NONE',  ( -1.000000000000000000, 0.000000000000000000, 0.000000000000000000 ) ) ;
#144 = VERTEX_POINT ( 'NONE', #54 ) ;
#145 = DIRECTION ( 'NONE',  ( -0.000000000000000000, -0.000000000000000000, 1.000000000000000000 ) ) ;
#146 = EDGE_CURVE ( 'NONE', #144, #125, #239, .T. ) ;
#147 = VERTEX_POINT ( 'NONE', #261 ) ;
#148 = CIRCLE ( 'NONE', #36, 0.2550000000000000044 ) ;
#149 = PRODUCT ( 'FM1016-10', 'FM1016-10', '', ( #82 ) ) ;
#150 = PRODUCT_DEFINITION ( 'UNKNOWN', '', #50, #223 ) ;
#151 = COLOUR_RGB ( '',0.7921568627450980005, 0.8196078431372548767, 0.9333333333333333481 ) ;
#152 =( NAMED_UNIT ( * ) SI_UNIT ( $, .STERADIAN. ) SOLID_ANGLE_UNIT ( ) );
#153 = ORIENTED_EDGE ( 'NONE', *, *, #235, .F. ) ;
#154 = VERTEX_POINT ( 'NONE', #10 ) ;
#155 = DIRECTION ( 'NONE',  ( -0.000000000000000000, -0.000000000000000000, 1.000000000000000000 ) ) ;
#156 = AXIS2_PLACEMENT_3D ( 'NONE', #85, #16, #199 ) ;
#157 = DIRECTION ( 'NONE',  ( 1.000000000000000000, 0.000000000000000000, 0.000000000000000000 ) ) ;
#158 = CARTESIAN_POINT ( 'NONE',  ( 0.2500499950009997807, -0.05000000000000006523, -3.299999999999999822 ) ) ;
#159 = CIRCLE ( 'NONE', #278, 0.2550000000000000044 ) ;
#160 = LINE ( 'NONE', #248, #2 ) ;
#161 = LINE ( 'NONE', #56, #75 ) ;
#162 = DIRECTION ( 'NONE',  ( -1.000000000000000000, 0.000000000000000000, -0.000000000000000000 ) ) ;
#163 = EDGE_CURVE ( 'NONE', #270, #287, #108, .T. ) ;
#164 = CARTESIAN_POINT ( 'NONE',  ( 0.000000000000000000, 0.000000000000000000, -2.029999999999999805 ) ) ;
#165 = EDGE_LOOP ( 'NONE', ( #12, #198, #61 ) ) ;
#166 = FACE_OUTER_BOUND ( 'NONE', #292, .T. ) ;
#167 = DIRECTION ( 'NONE',  ( -1.000000000000000000, 0.000000000000000000, 0.000000000000000000 ) ) ;
#168 = ADVANCED_FACE ( 'NONE', ( #215 ), #193, .F. ) ;
#169 = CARTESIAN_POINT ( 'NONE',  ( -0.2550000000000000600, 3.122849337825751159E-17, -3.299999999999999822 ) ) ;
#170 = ORIENTED_EDGE ( 'NONE', *, *, #91, .T. ) ;
#171 = APPLICATION_PROTOCOL_DEFINITION ( 'draft international standard', 'automotive_design', 1998, #189 ) ;
#172 = VECTOR ( 'NONE', #275, 1000.000000000000000 ) ;
#173 = AXIS2_PLACEMENT_3D ( 'NONE', #76, #255, #162 ) ;
#174 = DIRECTION ( 'NONE',  ( 1.000000000000000000, 0.000000000000000000, 0.000000000000000000 ) ) ;
#175 = ORIENTED_EDGE ( 'NONE', *, *, #208, .T. ) ;
#176 = STYLED_ITEM ( 'NONE', ( #295 ), #237 ) ;
#177 = SPHERICAL_SURFACE ( 'NONE', #119, 0.2550000000000000044 ) ;
#178 = ORIENTED_EDGE ( 'NONE', *, *, #290, .T. ) ;
#179 = EDGE_CURVE ( 'NONE', #154, #60, #281, .T. ) ;
#180 = CARTESIAN_POINT ( 'NONE',  ( 1.561424668912875271E-17, 0.000000000000000000, 0.000000000000000000 ) ) ;
#181 = CARTESIAN_POINT ( 'NONE',  ( 0.000000000000000000, 0.000000000000000000, -2.029999999999999805 ) ) ;
#182 = AXIS2_PLACEMENT_3D ( 'NONE', #43, #205, #92 ) ;
#183 = DIRECTION ( 'NONE',  ( 1.224646799147353207E-16, 1.000000000000000000, -0.000000000000000000 ) ) ;
#184 = CARTESIAN_POINT ( 'NONE',  ( 0.2500499950009997807, 0.04999999999999994033, -3.299999999999999822 ) ) ;
#185 = CARTESIAN_POINT ( 'NONE',  ( 0.000000000000000000, 0.000000000000000000, -0.2550000000000000044 ) ) ;
#186 = STYLED_ITEM ( 'NONE', ( #301 ), #66 ) ;
#187 = MECHANICAL_DESIGN_GEOMETRIC_PRESENTATION_REPRESENTATION (  '', ( #186 ), #194 ) ;
#188 = CARTESIAN_POINT ( 'NONE',  ( 0.2500499950009997807, -0.05000000000000006523, -3.299999999999999822 ) ) ;
#189 = APPLICATION_CONTEXT ( 'automotive_design' ) ;
#190 = DIRECTION ( 'NONE',  ( 0.000000000000000000, 0.000000000000000000, 1.000000000000000000 ) ) ;
#191 = CARTESIAN_POINT ( 'NONE',  ( 0.000000000000000000, 0.000000000000000000, -0.2550000000000000044 ) ) ;
#192 = ORIENTED_EDGE ( 'NONE', *, *, #84, .T. ) ;
#193 = PLANE ( 'NONE',  #229 ) ;
#194 =( GEOMETRIC_REPRESENTATION_CONTEXT ( 3 ) GLOBAL_UNCERTAINTY_ASSIGNED_CONTEXT ( ( #79 ) ) GLOBAL_UNIT_ASSIGNED_CONTEXT ( ( #133, #271, #62 ) ) REPRESENTATION_CONTEXT ( 'NONE', 'WORKASPACE' ) );
#195 = EDGE_CURVE ( 'NONE', #222, #287, #217, .T. ) ;
#196 = CARTESIAN_POINT ( 'NONE',  ( 0.000000000000000000, 0.000000000000000000, -3.299999999999999822 ) ) ;
#197 = PLANE ( 'NONE',  #173 ) ;
#198 = ORIENTED_EDGE ( 'NONE', *, *, #58, .T. ) ;
#199 = DIRECTION ( 'NONE',  ( 1.000000000000000000, 0.000000000000000000, 0.000000000000000000 ) ) ;
#200 = EDGE_CURVE ( 'NONE', #262, #83, #233, .T. ) ;
#201 = VERTEX_POINT ( 'NONE', #80 ) ;
#202 = SHAPE_DEFINITION_REPRESENTATION ( #297, #237 ) ;
#203 = ORIENTED_EDGE ( 'NONE', *, *, #97, .F. ) ;
#204 = EDGE_CURVE ( 'NONE', #83, #262, #47, .T. ) ;
#205 = DIRECTION ( 'NONE',  ( 0.000000000000000000, 1.000000000000000000, 0.000000000000000000 ) ) ;
#206 = FACE_OUTER_BOUND ( 'NONE', #142, .T. ) ;
#207 = AXIS2_PLACEMENT_3D ( 'NONE', #51, #214, #139 ) ;
#208 = EDGE_CURVE ( 'NONE', #60, #147, #88, .T. ) ;
#209 = SURFACE_STYLE_FILL_AREA ( #46 ) ;
#210 = LINE ( 'NONE', #70, #114 ) ;
#211 = CARTESIAN_POINT ( 'NONE',  ( 0.000000000000000000, 0.000000000000000000, -2.029999999999999805 ) ) ;
#212 = AXIS2_PLACEMENT_3D ( 'NONE', #213, #72, #288 ) ;
#213 = CARTESIAN_POINT ( 'NONE',  ( 0.000000000000000000, 0.000000000000000000, -2.029999999999999805 ) ) ;
#214 = DIRECTION ( 'NONE',  ( 0.000000000000000000, 0.000000000000000000, -1.000000000000000000 ) ) ;
#215 = FACE_OUTER_BOUND ( 'NONE', #247, .T. ) ;
#216 = EDGE_LOOP ( 'NONE', ( #220, #296, #178 ) ) ;
#217 = LINE ( 'NONE', #102, #59 ) ;
#218 =( GEOMETRIC_REPRESENTATION_CONTEXT ( 3 ) GLOBAL_UNCERTAINTY_ASSIGNED_CONTEXT ( ( #265 ) ) GLOBAL_UNIT_ASSIGNED_CONTEXT ( ( #126, #13, #152 ) ) REPRESENTATION_CONTEXT ( 'NONE', 'WORKASPACE' ) );
#219 = ORIENTED_EDGE ( 'NONE', *, *, #179, .F. ) ;
#220 = ORIENTED_EDGE ( 'NONE', *, *, #58, .F. ) ;
#221 = CIRCLE ( 'NONE', #107, 0.2550000000000000600 ) ;
#222 = VERTEX_POINT ( 'NONE', #169 ) ;
#223 = PRODUCT_DEFINITION_CONTEXT ( 'detailed design', #189, 'design' ) ;
#224 = ORIENTED_EDGE ( 'NONE', *, *, #78, .T. ) ;
#225 = CARTESIAN_POINT ( 'NONE',  ( 0.2550000000000000044, 0.000000000000000000, -2.029999999999999805 ) ) ;
#226 = CARTESIAN_POINT ( 'NONE',  ( 0.000000000000000000, 0.000000000000000000, -0.2550000000000000044 ) ) ;
#227 = PRODUCT_RELATED_PRODUCT_CATEGORY ( 'part', '', ( #149 ) ) ;
#228 = FILL_AREA_STYLE_COLOUR ( '', #39 ) ;
#229 = AXIS2_PLACEMENT_3D ( 'NONE', #26, #6, #286 ) ;
#230 = CARTESIAN_POINT ( 'NONE',  ( 0.000000000000000000, 0.000000000000000000, -2.029999999999999805 ) ) ;
#231 = SURFACE_SIDE_STYLE ('',( #209 ) ) ;
#232 = DIRECTION ( 'NONE',  ( 1.000000000000000000, 0.000000000000000000, -0.000000000000000000 ) ) ;
#233 = CIRCLE ( 'NONE', #212, 0.2550000000000000044 ) ;
#234 = CARTESIAN_POINT ( 'NONE',  ( 0.2500499950009997807, -0.04999999999999998196, -3.299999999999999822 ) ) ;
#235 = EDGE_CURVE ( 'NONE', #154, #144, #161, .T. ) ;
#236 = CARTESIAN_POINT ( 'NONE',  ( 0.000000000000000000, 0.000000000000000000, -0.2550000000000000044 ) ) ;
#237 = ADVANCED_BREP_SHAPE_REPRESENTATION ( 'FM1016-10', ( #66, #156 ), #244 ) ;
#238 = ORIENTED_EDGE ( 'NONE', *, *, #48, .F. ) ;
#239 = LINE ( 'NONE', #118, #279 ) ;
#240 = ORIENTED_EDGE ( 'NONE', *, *, #146, .F. ) ;
#241 = CIRCLE ( 'NONE', #274, 0.2550000000000000044 ) ;
#242 = VERTEX_POINT ( 'NONE', #234 ) ;
#243 = FACE_OUTER_BOUND ( 'NONE', #216, .T. ) ;
#244 =( GEOMETRIC_REPRESENTATION_CONTEXT ( 3 ) GLOBAL_UNCERTAINTY_ASSIGNED_CONTEXT ( ( #130 ) ) GLOBAL_UNIT_ASSIGNED_CONTEXT ( ( #264, #245, #87 ) ) REPRESENTATION_CONTEXT ( 'NONE', 'WORKASPACE' ) );
#245 =( NAMED_UNIT ( * ) PLANE_ANGLE_UNIT ( ) SI_UNIT ( $, .RADIAN. ) );
#246 = EDGE_LOOP ( 'NONE', ( #284, #268, #11, #175, #101, #8 ) ) ;
#247 = EDGE_LOOP ( 'NONE', ( #131, #18, #219, #74 ) ) ;
#248 = CARTESIAN_POINT ( 'NONE',  ( 0.2500499950009997807, -0.04999999999999998196, -3.299999999999999822 ) ) ;
#249 = FACE_OUTER_BOUND ( 'NONE', #5, .T. ) ;
#250 = FACE_OUTER_BOUND ( 'NONE', #289, .T. ) ;
#251 = SPHERICAL_SURFACE ( 'NONE', #182, 0.2550000000000000044 ) ;
#252 = ADVANCED_FACE ( 'NONE', ( #166 ), #117, .F. ) ;
#253 = DIRECTION ( 'NONE',  ( -0.000000000000000000, -0.000000000000000000, 1.000000000000000000 ) ) ;
#254 = CARTESIAN_POINT ( 'NONE',  ( 0.000000000000000000, 0.000000000000000000, -2.029999999999999805 ) ) ;
#255 = DIRECTION ( 'NONE',  ( 0.000000000000000000, 0.000000000000000000, -1.000000000000000000 ) ) ;
#256 = DIRECTION ( 'NONE',  ( 1.000000000000000000, 0.000000000000000000, -0.000000000000000000 ) ) ;
#257 = EDGE_LOOP ( 'NONE', ( #127, #89 ) ) ;
#258 = CARTESIAN_POINT ( 'NONE',  ( 0.2500499950009997807, -0.05000000000000006523, -2.029999999999999805 ) ) ;
#259 = EDGE_CURVE ( 'NONE', #125, #144, #148, .T. ) ;
#260 = CARTESIAN_POINT ( 'NONE',  ( 0.000000000000000000, 0.000000000000000000, -3.299999999999999822 ) ) ;
#261 = CARTESIAN_POINT ( 'NONE',  ( 0.2550000000000000044, 0.000000000000000000, -3.299999999999999822 ) ) ;
#262 = VERTEX_POINT ( 'NONE', #94 ) ;
#263 = AXIS2_PLACEMENT_3D ( 'NONE', #230, #276, #21 ) ;
#264 =( LENGTH_UNIT ( ) NAMED_UNIT ( * ) SI_UNIT ( .MILLI., .METRE. ) );
#265 = UNCERTAINTY_MEASURE_WITH_UNIT (LENGTH_MEASURE( 1.000000000000000082E-05 ), #126, 'distance_accuracy_value', 'NONE');
#266 = AXIS2_PLACEMENT_3D ( 'NONE', #164, #138, #256 ) ;
#267 = CLOSED_SHELL ( 'NONE', ( #68, #63, #283, #252, #106, #168, #112, #140, #300 ) ) ;
#268 = ORIENTED_EDGE ( 'NONE', *, *, #15, .T. ) ;
#269 = FILL_AREA_STYLE ('',( #104 ) ) ;
#270 = VERTEX_POINT ( 'NONE', #28 ) ;
#271 =( NAMED_UNIT ( * ) PLANE_ANGLE_UNIT ( ) SI_UNIT ( $, .RADIAN. ) );
#272 = DIRECTION ( 'NONE',  ( -1.000000000000000000, 0.000000000000000000, 0.000000000000000000 ) ) ;
#273 = VECTOR ( 'NONE', #253, 1000.000000000000000 ) ;
#274 = AXIS2_PLACEMENT_3D ( 'NONE', #185, #137, #90 ) ;
#275 = DIRECTION ( 'NONE',  ( -1.000000000000000000, 0.000000000000000000, 0.000000000000000000 ) ) ;
#276 = DIRECTION ( 'NONE',  ( 0.000000000000000000, 0.000000000000000000, 1.000000000000000000 ) ) ;
#277 = CARTESIAN_POINT ( 'NONE',  ( 0.2500499950009997807, -0.05000000000000006523, -2.029999999999999805 ) ) ;
#278 = AXIS2_PLACEMENT_3D ( 'NONE', #226, #183, #93 ) ;
#279 = VECTOR ( 'NONE', #29, 1000.000000000000000 ) ;
#280 = PLANE ( 'NONE',  #64 ) ;
#281 = LINE ( 'NONE', #31, #19 ) ;
#282 = DIRECTION ( 'NONE',  ( 0.000000000000000000, -1.000000000000000000, 0.000000000000000000 ) ) ;
#283 = ADVANCED_FACE ( 'NONE', ( #4 ), #280, .F. ) ;
#284 = ORIENTED_EDGE ( 'NONE', *, *, #22, .T. ) ;
#285 = AXIS2_PLACEMENT_3D ( 'NONE', #236, #120, #121 ) ;
#286 = DIRECTION ( 'NONE',  ( 1.000000000000000000, -2.438967143433287424E-16, 0.000000000000000000 ) ) ;
#287 = VERTEX_POINT ( 'NONE', #27 ) ;
#288 = DIRECTION ( 'NONE',  ( 1.000000000000000000, 0.000000000000000000, 0.000000000000000000 ) ) ;
#289 = EDGE_LOOP ( 'NONE', ( #53, #30, #224, #203, #81, #192, #103, #153 ) ) ;
#290 = EDGE_CURVE ( 'NONE', #270, #38, #293, .T. ) ;
#291 = APPLICATION_PROTOCOL_DEFINITION ( 'draft international standard', 'automotive_design', 1998, #95 ) ;
#292 = EDGE_LOOP ( 'NONE', ( #240, #32 ) ) ;
#293 = CIRCLE ( 'NONE', #134, 0.2550000000000000044 ) ;
#294 = CARTESIAN_POINT ( 'NONE',  ( 0.000000000000000000, 0.000000000000000000, -0.2550000000000000044 ) ) ;
#295 = PRESENTATION_STYLE_ASSIGNMENT (( #35 ) ) ;
#296 = ORIENTED_EDGE ( 'NONE', *, *, #163, .F. ) ;
#297 = PRODUCT_DEFINITION_SHAPE ( 'NONE', 'NONE',  #150 ) ;
#298 = CYLINDRICAL_SURFACE ( 'NONE', #136, 0.2550000000000000044 ) ;
#299 = LINE ( 'NONE', #158, #172 ) ;
#300 = ADVANCED_FACE ( 'NONE', ( #243 ), #177, .T. ) ;
#301 = PRESENTATION_STYLE_ASSIGNMENT (( #115 ) ) ;
#302 = CARTESIAN_POINT ( 'NONE',  ( 0.000000000000000000, 0.000000000000000000, -3.299999999999999822 ) ) ;
ENDSEC;
END-ISO-10303-21;
