ISO-10303-21;
HEADER;
FILE_DESCRIPTION (( 'STEP AP214' ),
    '1' );
FILE_NAME ('FM1016-13.step',
    '2021-04-21T15:50:27',
    ( '' ),
    ( '' ),
    'SwSTEP 2.0',
    'SolidWorks 2020',
    '' );
FILE_SCHEMA (( 'AUTOMOTIVE_DESIGN' ));
ENDSEC;

DATA;
#1 = FILL_AREA_STYLE ('',( #340 ) ) ;
#2 = ORIENTED_EDGE ( 'NONE', *, *, #401, .T. ) ;
#3 = CARTESIAN_POINT ( 'NONE',  ( 0.000000000000000000, 0.000000000000000000, -1.909999999999999920 ) ) ;
#4 = ORIENTED_EDGE ( 'NONE', *, *, #282, .F. ) ;
#5 = CIRCLE ( 'NONE', #163, 0.4550000000000000155 ) ;
#6 = ORIENTED_EDGE ( 'NONE', *, *, #135, .F. ) ;
#7 = PLANE ( 'NONE',  #24 ) ;
#8 = DIRECTION ( 'NONE',  ( 0.000000000000000000, 0.000000000000000000, -1.000000000000000000 ) ) ;
#9 = CIRCLE ( 'NONE', #379, 0.4550000000000000155 ) ;
#10 = EDGE_CURVE ( 'NONE', #328, #180, #324, .T. ) ;
#11 = ORIENTED_EDGE ( 'NONE', *, *, #66, .T. ) ;
#12 = CARTESIAN_POINT ( 'NONE',  ( 0.000000000000000000, 0.000000000000000000, -2.420000000000000373 ) ) ;
#13 = AXIS2_PLACEMENT_3D ( 'NONE', #402, #63, #153 ) ;
#14 = FACE_OUTER_BOUND ( 'NONE', #273, .T. ) ;
#15 = DIRECTION ( 'NONE',  ( 1.000000000000000000, 0.000000000000000000, 0.000000000000000000 ) ) ;
#16 =( NAMED_UNIT ( * ) PLANE_ANGLE_UNIT ( ) SI_UNIT ( $, .RADIAN. ) );
#17 = CARTESIAN_POINT ( 'NONE',  ( 0.000000000000000000, 0.000000000000000000, -2.420000000000000373 ) ) ;
#18 = DIRECTION ( 'NONE',  ( -0.000000000000000000, -0.000000000000000000, 1.000000000000000000 ) ) ;
#19 = AXIS2_PLACEMENT_3D ( 'NONE', #81, #203, #15 ) ;
#20 = CARTESIAN_POINT ( 'NONE',  ( 0.000000000000000000, 0.000000000000000000, 0.000000000000000000 ) ) ;
#21 = ADVANCED_FACE ( 'NONE', ( #14 ), #7, .F. ) ;
#22 = VERTEX_POINT ( 'NONE', #129 ) ;
#23 = EDGE_CURVE ( 'NONE', #52, #156, #353, .T. ) ;
#24 = AXIS2_PLACEMENT_3D ( 'NONE', #249, #101, #321 ) ;
#25 = CARTESIAN_POINT ( 'NONE',  ( 0.000000000000000000, 0.000000000000000000, -2.420000000000000373 ) ) ;
#26 = COLOUR_RGB ( '',0.7921568627450980005, 0.8196078431372548767, 0.9333333333333333481 ) ;
#27 = ORIENTED_EDGE ( 'NONE', *, *, #47, .F. ) ;
#28 = DIRECTION ( 'NONE',  ( 0.000000000000000000, 0.000000000000000000, -1.000000000000000000 ) ) ;
#29 = ORIENTED_EDGE ( 'NONE', *, *, #377, .F. ) ;
#30 = CARTESIAN_POINT ( 'NONE',  ( 0.000000000000000000, 0.000000000000000000, 0.000000000000000000 ) ) ;
#31 = EDGE_LOOP ( 'NONE', ( #406, #152, #4, #277 ) ) ;
#32 = PLANE ( 'NONE',  #187 ) ;
#33 = EDGE_LOOP ( 'NONE', ( #245, #240 ) ) ;
#34 = DIRECTION ( 'NONE',  ( 0.000000000000000000, 0.000000000000000000, -1.000000000000000000 ) ) ;
#35 = ORIENTED_EDGE ( 'NONE', *, *, #300, .F. ) ;
#36 = DIRECTION ( 'NONE',  ( -1.000000000000000000, 0.000000000000000000, 0.000000000000000000 ) ) ;
#37 = CARTESIAN_POINT ( 'NONE',  ( 0.2500499950009997807, -0.05000000000000004441, -2.420000000000000373 ) ) ;
#38 = DIRECTION ( 'NONE',  ( -0.000000000000000000, -0.000000000000000000, 1.000000000000000000 ) ) ;
#39 = SURFACE_SIDE_STYLE ('',( #389 ) ) ;
#40 = CIRCLE ( 'NONE', #364, 0.2550000000000000044 ) ;
#41 = ORIENTED_EDGE ( 'NONE', *, *, #356, .F. ) ;
#42 =( NAMED_UNIT ( * ) SI_UNIT ( $, .STERADIAN. ) SOLID_ANGLE_UNIT ( ) );
#43 = VECTOR ( 'NONE', #391, 1000.000000000000000 ) ;
#44 = ORIENTED_EDGE ( 'NONE', *, *, #158, .T. ) ;
#45 = DIRECTION ( 'NONE',  ( 0.000000000000000000, 0.000000000000000000, 1.000000000000000000 ) ) ;
#46 = MECHANICAL_DESIGN_GEOMETRIC_PRESENTATION_REPRESENTATION (  '', ( #253 ), #83 ) ;
#47 = EDGE_CURVE ( 'NONE', #380, #98, #78, .T. ) ;
#48 = DIRECTION ( 'NONE',  ( 0.000000000000000000, 0.000000000000000000, -1.000000000000000000 ) ) ;
#49 = CARTESIAN_POINT ( 'NONE',  ( -0.2550000000000000044, 3.122849337825750543E-17, -2.420000000000000373 ) ) ;
#50 = DIRECTION ( 'NONE',  ( -1.000000000000000000, 0.000000000000000000, 0.000000000000000000 ) ) ;
#51 = DIRECTION ( 'NONE',  ( 1.000000000000000000, -2.709963492703652317E-17, 0.000000000000000000 ) ) ;
#52 = VERTEX_POINT ( 'NONE', #73 ) ;
#53 = AXIS2_PLACEMENT_3D ( 'NONE', #75, #8, #222 ) ;
#54 = APPLICATION_CONTEXT ( 'automotive_design' ) ;
#55 = DIRECTION ( 'NONE',  ( 0.000000000000000000, 0.000000000000000000, 1.000000000000000000 ) ) ;
#56 = ORIENTED_EDGE ( 'NONE', *, *, #401, .F. ) ;
#57 = CARTESIAN_POINT ( 'NONE',  ( 0.000000000000000000, 0.000000000000000000, 0.000000000000000000 ) ) ;
#58 = ORIENTED_EDGE ( 'NONE', *, *, #254, .T. ) ;
#59 = PRODUCT_DEFINITION_SHAPE ( 'NONE', 'NONE',  #344 ) ;
#60 = CIRCLE ( 'NONE', #289, 0.2550000000000000044 ) ;
#61 = DIRECTION ( 'NONE',  ( 1.000000000000000000, 0.000000000000000000, 0.000000000000000000 ) ) ;
#62 = ORIENTED_EDGE ( 'NONE', *, *, #23, .T. ) ;
#63 = DIRECTION ( 'NONE',  ( 0.000000000000000000, 0.000000000000000000, 1.000000000000000000 ) ) ;
#64 = ORIENTED_EDGE ( 'NONE', *, *, #68, .F. ) ;
#65 = APPLICATION_CONTEXT ( 'automotive_design' ) ;
#66 = EDGE_CURVE ( 'NONE', #199, #77, #319, .T. ) ;
#67 = LINE ( 'NONE', #188, #144 ) ;
#68 = EDGE_CURVE ( 'NONE', #213, #154, #305, .T. ) ;
#69 = VECTOR ( 'NONE', #283, 1000.000000000000000 ) ;
#70 = ORIENTED_EDGE ( 'NONE', *, *, #47, .T. ) ;
#71 = ORIENTED_EDGE ( 'NONE', *, *, #254, .F. ) ;
#72 = ADVANCED_BREP_SHAPE_REPRESENTATION ( 'FM1016-13', ( #360, #147 ), #223 ) ;
#73 = CARTESIAN_POINT ( 'NONE',  ( -0.1050000000000013006, 0.000000000000000000, 0.000000000000000000 ) ) ;
#74 = PRODUCT_RELATED_PRODUCT_CATEGORY ( 'part', '', ( #97 ) ) ;
#75 = CARTESIAN_POINT ( 'NONE',  ( 0.000000000000000000, 0.000000000000000000, -3.690000000000000391 ) ) ;
#76 = DIRECTION ( 'NONE',  ( -1.000000000000000000, 0.000000000000000000, -0.000000000000000000 ) ) ;
#77 = VERTEX_POINT ( 'NONE', #390 ) ;
#78 = CIRCLE ( 'NONE', #178, 0.2550000000000000044 ) ;
#79 = LINE ( 'NONE', #361, #322 ) ;
#80 = ORIENTED_EDGE ( 'NONE', *, *, #66, .F. ) ;
#81 = CARTESIAN_POINT ( 'NONE',  ( 0.000000000000000000, 0.000000000000000000, -0.3499999999999976463 ) ) ;
#82 = AXIS2_PLACEMENT_3D ( 'NONE', #20, #139, #267 ) ;
#83 =( GEOMETRIC_REPRESENTATION_CONTEXT ( 3 ) GLOBAL_UNCERTAINTY_ASSIGNED_CONTEXT ( ( #142 ) ) GLOBAL_UNIT_ASSIGNED_CONTEXT ( ( #325, #16, #42 ) ) REPRESENTATION_CONTEXT ( 'NONE', 'WORKASPACE' ) );
#84 = CARTESIAN_POINT ( 'NONE',  ( 0.000000000000000000, 0.000000000000000000, -3.690000000000000391 ) ) ;
#85 = EDGE_CURVE ( 'NONE', #22, #328, #5, .T. ) ;
#86 = DIRECTION ( 'NONE',  ( 1.000000000000000000, -2.709963492703652625E-17, -0.000000000000000000 ) ) ;
#87 = DIRECTION ( 'NONE',  ( 0.000000000000000000, 0.000000000000000000, -1.000000000000000000 ) ) ;
#88 = CARTESIAN_POINT ( 'NONE',  ( 0.000000000000000000, 0.000000000000000000, -1.909999999999999920 ) ) ;
#89 = EDGE_LOOP ( 'NONE', ( #56, #275 ) ) ;
#90 = PRESENTATION_STYLE_ASSIGNMENT (( #145 ) ) ;
#91 = EDGE_CURVE ( 'NONE', #94, #211, #398, .T. ) ;
#92 = ORIENTED_EDGE ( 'NONE', *, *, #135, .T. ) ;
#93 = FACE_BOUND ( 'NONE', #372, .T. ) ;
#94 = VERTEX_POINT ( 'NONE', #37 ) ;
#95 = VERTEX_POINT ( 'NONE', #194 ) ;
#96 = AXIS2_PLACEMENT_3D ( 'NONE', #12, #355, #76 ) ;
#97 = PRODUCT ( 'FM1016-13', 'FM1016-13', '', ( #166 ) ) ;
#98 = VERTEX_POINT ( 'NONE', #157 ) ;
#99 = CARTESIAN_POINT ( 'NONE',  ( 0.2500499950009997252, -0.05000000000000004441, -3.690000000000000391 ) ) ;
#100 = DIRECTION ( 'NONE',  ( 0.000000000000000000, 0.000000000000000000, 1.000000000000000000 ) ) ;
#101 = DIRECTION ( 'NONE',  ( 2.167970794162921854E-16, 1.000000000000000000, 0.000000000000000000 ) ) ;
#102 = DIRECTION ( 'NONE',  ( -1.000000000000000000, 0.000000000000000000, 0.000000000000000000 ) ) ;
#103 = DIRECTION ( 'NONE',  ( -1.000000000000000000, 0.000000000000000000, 0.000000000000000000 ) ) ;
#104 = FACE_OUTER_BOUND ( 'NONE', #31, .T. ) ;
#105 = AXIS2_PLACEMENT_3D ( 'NONE', #251, #159, #102 ) ;
#106 = CYLINDRICAL_SURFACE ( 'NONE', #341, 0.4550000000000000155 ) ;
#107 = CARTESIAN_POINT ( 'NONE',  ( 0.000000000000000000, 0.000000000000000000, -3.690000000000000391 ) ) ;
#108 = AXIS2_PLACEMENT_3D ( 'NONE', #107, #392, #330 ) ;
#109 = DIRECTION ( 'NONE',  ( 1.000000000000000000, 0.000000000000000000, 0.000000000000000000 ) ) ;
#110 = VECTOR ( 'NONE', #294, 1000.000000000000000 ) ;
#111 = LINE ( 'NONE', #208, #310 ) ;
#112 = ORIENTED_EDGE ( 'NONE', *, *, #91, .F. ) ;
#113 = CIRCLE ( 'NONE', #236, 0.4550000000000000155 ) ;
#114 = DIRECTION ( 'NONE',  ( 1.000000000000000000, 0.000000000000000000, 0.000000000000000000 ) ) ;
#115 = SURFACE_STYLE_FILL_AREA ( #1 ) ;
#116 = ORIENTED_EDGE ( 'NONE', *, *, #282, .T. ) ;
#117 = ORIENTED_EDGE ( 'NONE', *, *, #85, .F. ) ;
#118 = ORIENTED_EDGE ( 'NONE', *, *, #327, .F. ) ;
#119 = DIRECTION ( 'NONE',  ( -1.000000000000000000, 0.000000000000000000, -0.000000000000000000 ) ) ;
#120 = EDGE_LOOP ( 'NONE', ( #71, #118, #238, #112, #6, #122, #269, #70 ) ) ;
#121 = DIRECTION ( 'NONE',  ( -1.000000000000000000, 0.000000000000000000, 0.000000000000000000 ) ) ;
#122 = ORIENTED_EDGE ( 'NONE', *, *, #248, .F. ) ;
#123 = DIRECTION ( 'NONE',  ( -0.7071067811865483499, 0.000000000000000000, -0.7071067811865466846 ) ) ;
#124 =( NAMED_UNIT ( * ) PLANE_ANGLE_UNIT ( ) SI_UNIT ( $, .RADIAN. ) );
#125 = VECTOR ( 'NONE', #371, 1000.000000000000000 ) ;
#126 = LINE ( 'NONE', #227, #382 ) ;
#127 = PRODUCT_DEFINITION_FORMATION_WITH_SPECIFIED_SOURCE ( 'ANY', '', #97, .NOT_KNOWN. ) ;
#128 = EDGE_LOOP ( 'NONE', ( #182, #320, #62, #318 ) ) ;
#129 = CARTESIAN_POINT ( 'NONE',  ( -0.4550000000000000155, 5.572142936120455848E-17, -1.909999999999999920 ) ) ;
#130 = STYLED_ITEM ( 'NONE', ( #90 ), #360 ) ;
#131 = EDGE_CURVE ( 'NONE', #284, #95, #219, .T. ) ;
#132 = EDGE_CURVE ( 'NONE', #241, #380, #255, .T. ) ;
#133 = DIRECTION ( 'NONE',  ( -0.000000000000000000, -0.000000000000000000, 1.000000000000000000 ) ) ;
#134 = CARTESIAN_POINT ( 'NONE',  ( 0.2500499950009997252, 0.04999999999999991951, -3.690000000000000391 ) ) ;
#135 = EDGE_CURVE ( 'NONE', #199, #94, #126, .T. ) ;
#136 = CYLINDRICAL_SURFACE ( 'NONE', #216, 0.2550000000000000044 ) ;
#137 = LINE ( 'NONE', #235, #202 ) ;
#138 = VECTOR ( 'NONE', #18, 1000.000000000000000 ) ;
#139 = DIRECTION ( 'NONE',  ( 0.000000000000000000, 0.000000000000000000, 1.000000000000000000 ) ) ;
#140 = ORIENTED_EDGE ( 'NONE', *, *, #295, .F. ) ;
#141 = AXIS2_PLACEMENT_3D ( 'NONE', #293, #259, #103 ) ;
#142 = UNCERTAINTY_MEASURE_WITH_UNIT (LENGTH_MEASURE( 1.000000000000000082E-05 ), #325, 'distance_accuracy_value', 'NONE');
#143 = CARTESIAN_POINT ( 'NONE',  ( 0.000000000000000000, 0.000000000000000000, -1.909999999999999920 ) ) ;
#144 = VECTOR ( 'NONE', #272, 1000.000000000000114 ) ;
#145 = SURFACE_STYLE_USAGE ( .BOTH. , #375 ) ;
#146 = ORIENTED_EDGE ( 'NONE', *, *, #10, .T. ) ;
#147 = AXIS2_PLACEMENT_3D ( 'NONE', #394, #302, #233 ) ;
#148 = CYLINDRICAL_SURFACE ( 'NONE', #316, 0.4550000000000000155 ) ;
#149 = ORIENTED_EDGE ( 'NONE', *, *, #247, .F. ) ;
#150 = ADVANCED_FACE ( 'NONE', ( #226 ), #291, .T. ) ;
#151 = DIRECTION ( 'NONE',  ( 0.000000000000000000, 0.000000000000000000, 1.000000000000000000 ) ) ;
#152 = ORIENTED_EDGE ( 'NONE', *, *, #164, .F. ) ;
#153 = DIRECTION ( 'NONE',  ( 1.000000000000000000, 0.000000000000000000, 0.000000000000000000 ) ) ;
#154 = VERTEX_POINT ( 'NONE', #197 ) ;
#155 = CARTESIAN_POINT ( 'NONE',  ( 0.2500499950009997252, -0.05000000000000004441, -2.420000000000000373 ) ) ;
#156 = VERTEX_POINT ( 'NONE', #165 ) ;
#157 = CARTESIAN_POINT ( 'NONE',  ( -0.2550000000000000044, 3.122849337825750543E-17, -1.909999999999999920 ) ) ;
#158 = EDGE_CURVE ( 'NONE', #98, #380, #326, .T. ) ;
#159 = DIRECTION ( 'NONE',  ( 0.000000000000000000, 0.000000000000000000, -1.000000000000000000 ) ) ;
#160 = CIRCLE ( 'NONE', #19, 0.4550000000000000155 ) ;
#161 = ORIENTED_EDGE ( 'NONE', *, *, #132, .F. ) ;
#162 = SURFACE_STYLE_USAGE ( .BOTH. , #39 ) ;
#163 = AXIS2_PLACEMENT_3D ( 'NONE', #387, #100, #192 ) ;
#164 = EDGE_CURVE ( 'NONE', #174, #95, #331, .T. ) ;
#165 = CARTESIAN_POINT ( 'NONE',  ( -0.4550000000000000155, 5.572142936120455848E-17, -0.3499999999999976463 ) ) ;
#166 = PRODUCT_CONTEXT ( 'NONE', #54, 'mechanical' ) ;
#167 = ORIENTED_EDGE ( 'NONE', *, *, #68, .T. ) ;
#168 =( GEOMETRIC_REPRESENTATION_CONTEXT ( 3 ) GLOBAL_UNCERTAINTY_ASSIGNED_CONTEXT ( ( #172 ) ) GLOBAL_UNIT_ASSIGNED_CONTEXT ( ( #212, #378, #244 ) ) REPRESENTATION_CONTEXT ( 'NONE', 'WORKASPACE' ) );
#169 = CARTESIAN_POINT ( 'NONE',  ( 0.2500499950009997252, 0.04999999999999991951, -3.690000000000000391 ) ) ;
#170 = CARTESIAN_POINT ( 'NONE',  ( 0.000000000000000000, 0.000000000000000000, -3.690000000000000391 ) ) ;
#171 = CARTESIAN_POINT ( 'NONE',  ( 0.000000000000000000, 0.000000000000000000, 0.000000000000000000 ) ) ;
#172 = UNCERTAINTY_MEASURE_WITH_UNIT (LENGTH_MEASURE( 1.000000000000000082E-05 ), #212, 'distance_accuracy_value', 'NONE');
#173 = LINE ( 'NONE', #399, #138 ) ;
#174 = VERTEX_POINT ( 'NONE', #169 ) ;
#175 = DIRECTION ( 'NONE',  ( -0.000000000000000000, -0.000000000000000000, 1.000000000000000000 ) ) ;
#176 = ADVANCED_FACE ( 'NONE', ( #296 ), #136, .T. ) ;
#177 = EDGE_CURVE ( 'NONE', #284, #95, #79, .T. ) ;
#178 = AXIS2_PLACEMENT_3D ( 'NONE', #354, #225, #384 ) ;
#179 = PLANE ( 'NONE',  #201 ) ;
#180 = VERTEX_POINT ( 'NONE', #200 ) ;
#181 = CARTESIAN_POINT ( 'NONE',  ( 0.4550000000000000155, 0.000000000000000000, -1.909999999999999920 ) ) ;
#182 = ORIENTED_EDGE ( 'NONE', *, *, #386, .F. ) ;
#183 = AXIS2_PLACEMENT_3D ( 'NONE', #278, #28, #119 ) ;
#184 = ORIENTED_EDGE ( 'NONE', *, *, #214, .F. ) ;
#185 = DIRECTION ( 'NONE',  ( -1.000000000000000000, 0.000000000000000000, 0.000000000000000000 ) ) ;
#186 = ORIENTED_EDGE ( 'NONE', *, *, #177, .F. ) ;
#187 = AXIS2_PLACEMENT_3D ( 'NONE', #3, #55, #276 ) ;
#188 = CARTESIAN_POINT ( 'NONE',  ( 0.1050000000000013006, 1.285879139104736817E-17, 0.000000000000000000 ) ) ;
#189 = EDGE_LOOP ( 'NONE', ( #313, #337, #11, #220, #167, #116 ) ) ;
#190 = DIRECTION ( 'NONE',  ( -1.000000000000000000, 2.167970794162922100E-16, 0.000000000000000000 ) ) ;
#191 =( NAMED_UNIT ( * ) SI_UNIT ( $, .STERADIAN. ) SOLID_ANGLE_UNIT ( ) );
#192 = DIRECTION ( 'NONE',  ( 1.000000000000000000, 0.000000000000000000, 0.000000000000000000 ) ) ;
#193 = APPLICATION_PROTOCOL_DEFINITION ( 'draft international standard', 'automotive_design', 1998, #54 ) ;
#194 = CARTESIAN_POINT ( 'NONE',  ( 0.2500499950009997807, 0.04999999999999991951, -2.420000000000000373 ) ) ;
#195 = ADVANCED_FACE ( 'NONE', ( #260 ), #232, .T. ) ;
#196 = CONICAL_SURFACE ( 'NONE', #263, 0.1050000000000013006, 0.7853981633974495002 ) ;
#197 = CARTESIAN_POINT ( 'NONE',  ( -0.2500499950009997807, 0.04999999999999993339, -3.690000000000000391 ) ) ;
#198 = VECTOR ( 'NONE', #133, 1000.000000000000000 ) ;
#199 = VERTEX_POINT ( 'NONE', #395 ) ;
#200 = CARTESIAN_POINT ( 'NONE',  ( 0.4550000000000000155, 0.000000000000000000, -0.3499999999999976463 ) ) ;
#201 = AXIS2_PLACEMENT_3D ( 'NONE', #30, #151, #239 ) ;
#202 = VECTOR ( 'NONE', #264, 1000.000000000000000 ) ;
#203 = DIRECTION ( 'NONE',  ( 0.000000000000000000, 0.000000000000000000, -1.000000000000000000 ) ) ;
#204 = DIRECTION ( 'NONE',  ( -1.000000000000000000, 0.000000000000000000, 0.000000000000000000 ) ) ;
#205 = DIRECTION ( 'NONE',  ( -0.000000000000000000, -0.000000000000000000, 1.000000000000000000 ) ) ;
#206 = ADVANCED_FACE ( 'NONE', ( #104 ), #304, .F. ) ;
#207 = ADVANCED_FACE ( 'NONE', ( #367 ), #106, .T. ) ;
#208 = CARTESIAN_POINT ( 'NONE',  ( -0.2500499950009997807, -0.04999999999999996808, -3.690000000000000391 ) ) ;
#209 = ORIENTED_EDGE ( 'NONE', *, *, #131, .F. ) ;
#210 = CARTESIAN_POINT ( 'NONE',  ( 0.000000000000000000, 0.000000000000000000, -3.690000000000000391 ) ) ;
#211 = VERTEX_POINT ( 'NONE', #234 ) ;
#212 =( LENGTH_UNIT ( ) NAMED_UNIT ( * ) SI_UNIT ( .MILLI., .METRE. ) );
#213 = VERTEX_POINT ( 'NONE', #366 ) ;
#214 = EDGE_CURVE ( 'NONE', #156, #180, #9, .T. ) ;
#215 = ORIENTED_EDGE ( 'NONE', *, *, #356, .T. ) ;
#216 = AXIS2_PLACEMENT_3D ( 'NONE', #17, #228, #262 ) ;
#217 = DIRECTION ( 'NONE',  ( -0.000000000000000000, -0.000000000000000000, 1.000000000000000000 ) ) ;
#218 = EDGE_LOOP ( 'NONE', ( #215, #243, #266, #369 ) ) ;
#219 = CIRCLE ( 'NONE', #105, 0.2550000000000000044 ) ;
#220 = ORIENTED_EDGE ( 'NONE', *, *, #327, .T. ) ;
#221 = AXIS2_PLACEMENT_3D ( 'NONE', #57, #34, #121 ) ;
#222 = DIRECTION ( 'NONE',  ( -1.000000000000000000, 0.000000000000000000, 0.000000000000000000 ) ) ;
#223 =( GEOMETRIC_REPRESENTATION_CONTEXT ( 3 ) GLOBAL_UNCERTAINTY_ASSIGNED_CONTEXT ( ( #299 ) ) GLOBAL_UNIT_ASSIGNED_CONTEXT ( ( #352, #124, #191 ) ) REPRESENTATION_CONTEXT ( 'NONE', 'WORKASPACE' ) );
#224 = DIRECTION ( 'NONE',  ( 0.000000000000000000, 0.000000000000000000, -1.000000000000000000 ) ) ;
#225 = DIRECTION ( 'NONE',  ( 0.000000000000000000, 0.000000000000000000, -1.000000000000000000 ) ) ;
#226 = FACE_OUTER_BOUND ( 'NONE', #383, .T. ) ;
#227 = CARTESIAN_POINT ( 'NONE',  ( 0.2500499950009997252, -0.05000000000000004441, -3.690000000000000391 ) ) ;
#228 = DIRECTION ( 'NONE',  ( -0.000000000000000000, -0.000000000000000000, 1.000000000000000000 ) ) ;
#229 = EDGE_CURVE ( 'NONE', #180, #156, #160, .T. ) ;
#230 = CARTESIAN_POINT ( 'NONE',  ( 0.000000000000000000, 0.000000000000000000, -0.3499999999999976463 ) ) ;
#231 = AXIS2_PLACEMENT_3D ( 'NONE', #134, #261, #51 ) ;
#232 = PLANE ( 'NONE',  #108 ) ;
#233 = DIRECTION ( 'NONE',  ( 1.000000000000000000, 0.000000000000000000, 0.000000000000000000 ) ) ;
#234 = CARTESIAN_POINT ( 'NONE',  ( -0.2500499950009997807, -0.04999999999999996808, -2.420000000000000373 ) ) ;
#235 = CARTESIAN_POINT ( 'NONE',  ( 0.2500499950009997252, 0.04999999999999991951, -3.690000000000000391 ) ) ;
#236 = AXIS2_PLACEMENT_3D ( 'NONE', #143, #373, #61 ) ;
#237 = PLANE ( 'NONE',  #183 ) ;
#238 = ORIENTED_EDGE ( 'NONE', *, *, #295, .T. ) ;
#239 = DIRECTION ( 'NONE',  ( 1.000000000000000000, 0.000000000000000000, -0.000000000000000000 ) ) ;
#240 = ORIENTED_EDGE ( 'NONE', *, *, #377, .T. ) ;
#241 = VERTEX_POINT ( 'NONE', #365 ) ;
#242 = CARTESIAN_POINT ( 'NONE',  ( 0.1050000000000013006, 3.429011037612596795E-17, 0.000000000000000000 ) ) ;
#243 = ORIENTED_EDGE ( 'NONE', *, *, #300, .T. ) ;
#244 =( NAMED_UNIT ( * ) SI_UNIT ( $, .STERADIAN. ) SOLID_ANGLE_UNIT ( ) );
#245 = ORIENTED_EDGE ( 'NONE', *, *, #287, .T. ) ;
#246 = VECTOR ( 'NONE', #190, 1000.000000000000000 ) ;
#247 = EDGE_CURVE ( 'NONE', #174, #241, #40, .T. ) ;
#248 = EDGE_CURVE ( 'NONE', #241, #199, #60, .T. ) ;
#249 = CARTESIAN_POINT ( 'NONE',  ( 0.2500499950009997252, -0.05000000000000004441, -3.690000000000000391 ) ) ;
#250 = CONICAL_SURFACE ( 'NONE', #221, 0.1050000000000013006, 0.7853981633974495002 ) ;
#251 = CARTESIAN_POINT ( 'NONE',  ( 0.000000000000000000, 0.000000000000000000, -2.420000000000000373 ) ) ;
#252 = CIRCLE ( 'NONE', #82, 0.1050000000000013006 ) ;
#253 = STYLED_ITEM ( 'NONE', ( #292 ), #72 ) ;
#254 = EDGE_CURVE ( 'NONE', #213, #98, #333, .T. ) ;
#255 = LINE ( 'NONE', #288, #43 ) ;
#256 = FILL_AREA_STYLE_COLOUR ( '', #290 ) ;
#257 = EDGE_LOOP ( 'NONE', ( #64, #58, #44, #161, #149, #311, #209, #388 ) ) ;
#258 = MECHANICAL_DESIGN_GEOMETRIC_PRESENTATION_REPRESENTATION (  '', ( #130 ), #168 ) ;
#259 = DIRECTION ( 'NONE',  ( 0.000000000000000000, 0.000000000000000000, -1.000000000000000000 ) ) ;
#260 = FACE_OUTER_BOUND ( 'NONE', #189, .T. ) ;
#261 = DIRECTION ( 'NONE',  ( -2.709963492703652317E-17, -1.000000000000000000, 0.000000000000000000 ) ) ;
#262 = DIRECTION ( 'NONE',  ( 1.000000000000000000, 0.000000000000000000, 0.000000000000000000 ) ) ;
#263 = AXIS2_PLACEMENT_3D ( 'NONE', #171, #301, #50 ) ;
#264 = DIRECTION ( 'NONE',  ( 1.000000000000000000, -2.709963492703652625E-17, -0.000000000000000000 ) ) ;
#265 = ADVANCED_FACE ( 'NONE', ( #334 ), #196, .T. ) ;
#266 = ORIENTED_EDGE ( 'NONE', *, *, #214, .T. ) ;
#267 = DIRECTION ( 'NONE',  ( 1.000000000000000000, 0.000000000000000000, 0.000000000000000000 ) ) ;
#268 = CLOSED_SHELL ( 'NONE', ( #265, #370, #207, #150, #329, #332, #357, #176, #308, #21, #206, #195, #400 ) ) ;
#269 = ORIENTED_EDGE ( 'NONE', *, *, #132, .T. ) ;
#270 = FACE_OUTER_BOUND ( 'NONE', #279, .T. ) ;
#271 = CIRCLE ( 'NONE', #13, 0.1050000000000013006 ) ;
#272 = DIRECTION ( 'NONE',  ( 0.7071067811865483499, 8.659560562354942719E-17, -0.7071067811865466846 ) ) ;
#273 = EDGE_LOOP ( 'NONE', ( #2, #140, #80, #92 ) ) ;
#274 = DIRECTION ( 'NONE',  ( 1.000000000000000000, 0.000000000000000000, 0.000000000000000000 ) ) ;
#275 = ORIENTED_EDGE ( 'NONE', *, *, #91, .T. ) ;
#276 = DIRECTION ( 'NONE',  ( 1.000000000000000000, 0.000000000000000000, -0.000000000000000000 ) ) ;
#277 = ORIENTED_EDGE ( 'NONE', *, *, #280, .T. ) ;
#278 = CARTESIAN_POINT ( 'NONE',  ( 0.000000000000000000, 0.000000000000000000, -2.420000000000000373 ) ) ;
#279 = EDGE_LOOP ( 'NONE', ( #41, #117 ) ) ;
#280 = EDGE_CURVE ( 'NONE', #154, #284, #173, .T. ) ;
#281 = FILL_AREA_STYLE ('',( #256 ) ) ;
#282 = EDGE_CURVE ( 'NONE', #154, #174, #137, .T. ) ;
#283 = DIRECTION ( 'NONE',  ( -1.000000000000000000, 2.167970794162922100E-16, 0.000000000000000000 ) ) ;
#284 = VERTEX_POINT ( 'NONE', #397 ) ;
#285 = AXIS2_PLACEMENT_3D ( 'NONE', #286, #224, #36 ) ;
#286 = CARTESIAN_POINT ( 'NONE',  ( 0.000000000000000000, 0.000000000000000000, -2.420000000000000373 ) ) ;
#287 = EDGE_CURVE ( 'NONE', #52, #315, #252, .T. ) ;
#288 = CARTESIAN_POINT ( 'NONE',  ( 0.2550000000000000044, 0.000000000000000000, -2.420000000000000373 ) ) ;
#289 = AXIS2_PLACEMENT_3D ( 'NONE', #170, #303, #298 ) ;
#290 = COLOUR_RGB ( '',0.7921568627450980005, 0.8196078431372548767, 0.9333333333333333481 ) ;
#291 = PLANE ( 'NONE',  #96 ) ;
#292 = PRESENTATION_STYLE_ASSIGNMENT (( #162 ) ) ;
#293 = CARTESIAN_POINT ( 'NONE',  ( 0.000000000000000000, 0.000000000000000000, -1.909999999999999920 ) ) ;
#294 = DIRECTION ( 'NONE',  ( 0.000000000000000000, 0.000000000000000000, 1.000000000000000000 ) ) ;
#295 = EDGE_CURVE ( 'NONE', #77, #211, #111, .T. ) ;
#296 = FACE_OUTER_BOUND ( 'NONE', #120, .T. ) ;
#297 = APPLICATION_PROTOCOL_DEFINITION ( 'draft international standard', 'automotive_design', 1998, #65 ) ;
#298 = DIRECTION ( 'NONE',  ( -1.000000000000000000, 0.000000000000000000, 0.000000000000000000 ) ) ;
#299 = UNCERTAINTY_MEASURE_WITH_UNIT (LENGTH_MEASURE( 1.000000000000000082E-05 ), #352, 'distance_accuracy_value', 'NONE');
#300 = EDGE_CURVE ( 'NONE', #22, #156, #405, .T. ) ;
#301 = DIRECTION ( 'NONE',  ( 0.000000000000000000, 0.000000000000000000, -1.000000000000000000 ) ) ;
#302 = DIRECTION ( 'NONE',  ( 0.000000000000000000, 0.000000000000000000, 1.000000000000000000 ) ) ;
#303 = DIRECTION ( 'NONE',  ( 0.000000000000000000, 0.000000000000000000, -1.000000000000000000 ) ) ;
#304 = PLANE ( 'NONE',  #231 ) ;
#305 = CIRCLE ( 'NONE', #53, 0.2550000000000000044 ) ;
#306 = CYLINDRICAL_SURFACE ( 'NONE', #368, 0.2550000000000000044 ) ;
#307 = EDGE_LOOP ( 'NONE', ( #35, #376, #146, #374 ) ) ;
#308 = ADVANCED_FACE ( 'NONE', ( #345 ), #237, .T. ) ;
#309 = CARTESIAN_POINT ( 'NONE',  ( -0.4550000000000000155, 5.572142936120455848E-17, -1.909999999999999920 ) ) ;
#310 = VECTOR ( 'NONE', #175, 1000.000000000000000 ) ;
#311 = ORIENTED_EDGE ( 'NONE', *, *, #164, .T. ) ;
#312 = FACE_OUTER_BOUND ( 'NONE', #257, .T. ) ;
#313 = ORIENTED_EDGE ( 'NONE', *, *, #247, .T. ) ;
#314 = DIRECTION ( 'NONE',  ( 0.000000000000000000, 0.000000000000000000, 1.000000000000000000 ) ) ;
#315 = VERTEX_POINT ( 'NONE', #242 ) ;
#316 = AXIS2_PLACEMENT_3D ( 'NONE', #88, #314, #274 ) ;
#317 = LINE ( 'NONE', #155, #69 ) ;
#318 = ORIENTED_EDGE ( 'NONE', *, *, #229, .F. ) ;
#319 = LINE ( 'NONE', #99, #246 ) ;
#320 = ORIENTED_EDGE ( 'NONE', *, *, #287, .F. ) ;
#321 = DIRECTION ( 'NONE',  ( -1.000000000000000000, 2.167970794162921854E-16, 0.000000000000000000 ) ) ;
#322 = VECTOR ( 'NONE', #86, 1000.000000000000000 ) ;
#323 = PRODUCT_DEFINITION_CONTEXT ( 'detailed design', #65, 'design' ) ;
#324 = LINE ( 'NONE', #351, #110 ) ;
#325 =( LENGTH_UNIT ( ) NAMED_UNIT ( * ) SI_UNIT ( .MILLI., .METRE. ) );
#326 = CIRCLE ( 'NONE', #141, 0.2550000000000000044 ) ;
#327 = EDGE_CURVE ( 'NONE', #77, #213, #359, .T. ) ;
#328 = VERTEX_POINT ( 'NONE', #181 ) ;
#329 = ADVANCED_FACE ( 'NONE', ( #336 ), #148, .T. ) ;
#330 = DIRECTION ( 'NONE',  ( -1.000000000000000000, 0.000000000000000000, -0.000000000000000000 ) ) ;
#331 = LINE ( 'NONE', #335, #198 ) ;
#332 = ADVANCED_FACE ( 'NONE', ( #93, #270 ), #32, .F. ) ;
#333 = LINE ( 'NONE', #49, #396 ) ;
#334 = FACE_OUTER_BOUND ( 'NONE', #404, .T. ) ;
#335 = CARTESIAN_POINT ( 'NONE',  ( 0.2500499950009997252, 0.04999999999999991951, -3.690000000000000391 ) ) ;
#336 = FACE_OUTER_BOUND ( 'NONE', #307, .T. ) ;
#337 = ORIENTED_EDGE ( 'NONE', *, *, #248, .T. ) ;
#338 = FACE_OUTER_BOUND ( 'NONE', #128, .T. ) ;
#339 = ORIENTED_EDGE ( 'NONE', *, *, #131, .T. ) ;
#340 = FILL_AREA_STYLE_COLOUR ( '', #26 ) ;
#341 = AXIS2_PLACEMENT_3D ( 'NONE', #393, #45, #109 ) ;
#342 = ORIENTED_EDGE ( 'NONE', *, *, #158, .F. ) ;
#343 = PRESENTATION_LAYER_ASSIGNMENT (  '', '', ( #253 ) ) ;
#344 = PRODUCT_DEFINITION ( 'UNKNOWN', '', #127, #323 ) ;
#345 = FACE_OUTER_BOUND ( 'NONE', #89, .T. ) ;
#346 = VECTOR ( 'NONE', #123, 1000.000000000000114 ) ;
#347 = ORIENTED_EDGE ( 'NONE', *, *, #386, .T. ) ;
#348 = CARTESIAN_POINT ( 'NONE',  ( 0.2550000000000000044, 0.000000000000000000, -1.909999999999999920 ) ) ;
#349 = ORIENTED_EDGE ( 'NONE', *, *, #23, .F. ) ;
#350 = PRESENTATION_LAYER_ASSIGNMENT (  '', '', ( #130 ) ) ;
#351 = CARTESIAN_POINT ( 'NONE',  ( 0.4550000000000000155, 0.000000000000000000, -1.909999999999999920 ) ) ;
#352 =( LENGTH_UNIT ( ) NAMED_UNIT ( * ) SI_UNIT ( .MILLI., .METRE. ) );
#353 = LINE ( 'NONE', #358, #346 ) ;
#354 = CARTESIAN_POINT ( 'NONE',  ( 0.000000000000000000, 0.000000000000000000, -1.909999999999999920 ) ) ;
#355 = DIRECTION ( 'NONE',  ( 0.000000000000000000, 0.000000000000000000, -1.000000000000000000 ) ) ;
#356 = EDGE_CURVE ( 'NONE', #328, #22, #113, .T. ) ;
#357 = ADVANCED_FACE ( 'NONE', ( #403 ), #179, .T. ) ;
#358 = CARTESIAN_POINT ( 'NONE',  ( -0.1050000000000013006, 0.000000000000000000, 0.000000000000000000 ) ) ;
#359 = CIRCLE ( 'NONE', #385, 0.2550000000000000044 ) ;
#360 = MANIFOLD_SOLID_BREP ( 'Chamfer1', #268 ) ;
#361 = CARTESIAN_POINT ( 'NONE',  ( 0.2500499950009997252, 0.04999999999999991951, -2.420000000000000373 ) ) ;
#362 = SHAPE_DEFINITION_REPRESENTATION ( #59, #72 ) ;
#363 = DIRECTION ( 'NONE',  ( 1.000000000000000000, 0.000000000000000000, 0.000000000000000000 ) ) ;
#364 = AXIS2_PLACEMENT_3D ( 'NONE', #84, #48, #204 ) ;
#365 = CARTESIAN_POINT ( 'NONE',  ( 0.2550000000000000044, 0.000000000000000000, -3.690000000000000391 ) ) ;
#366 = CARTESIAN_POINT ( 'NONE',  ( -0.2550000000000000044, 3.122849337825750543E-17, -3.690000000000000391 ) ) ;
#367 = FACE_OUTER_BOUND ( 'NONE', #218, .T. ) ;
#368 = AXIS2_PLACEMENT_3D ( 'NONE', #25, #217, #114 ) ;
#369 = ORIENTED_EDGE ( 'NONE', *, *, #10, .F. ) ;
#370 = ADVANCED_FACE ( 'NONE', ( #312 ), #306, .T. ) ;
#371 = DIRECTION ( 'NONE',  ( 0.000000000000000000, 0.000000000000000000, 1.000000000000000000 ) ) ;
#372 = EDGE_LOOP ( 'NONE', ( #27, #342 ) ) ;
#373 = DIRECTION ( 'NONE',  ( 0.000000000000000000, 0.000000000000000000, 1.000000000000000000 ) ) ;
#374 = ORIENTED_EDGE ( 'NONE', *, *, #229, .T. ) ;
#375 = SURFACE_SIDE_STYLE ('',( #115 ) ) ;
#376 = ORIENTED_EDGE ( 'NONE', *, *, #85, .T. ) ;
#377 = EDGE_CURVE ( 'NONE', #315, #52, #271, .T. ) ;
#378 =( NAMED_UNIT ( * ) PLANE_ANGLE_UNIT ( ) SI_UNIT ( $, .RADIAN. ) );
#379 = AXIS2_PLACEMENT_3D ( 'NONE', #230, #87, #363 ) ;
#380 = VERTEX_POINT ( 'NONE', #348 ) ;
#381 = DIRECTION ( 'NONE',  ( 0.000000000000000000, 0.000000000000000000, -1.000000000000000000 ) ) ;
#382 = VECTOR ( 'NONE', #38, 1000.000000000000000 ) ;
#383 = EDGE_LOOP ( 'NONE', ( #186, #339 ) ) ;
#384 = DIRECTION ( 'NONE',  ( -1.000000000000000000, 0.000000000000000000, 0.000000000000000000 ) ) ;
#385 = AXIS2_PLACEMENT_3D ( 'NONE', #210, #381, #185 ) ;
#386 = EDGE_CURVE ( 'NONE', #315, #180, #67, .T. ) ;
#387 = CARTESIAN_POINT ( 'NONE',  ( 0.000000000000000000, 0.000000000000000000, -1.909999999999999920 ) ) ;
#388 = ORIENTED_EDGE ( 'NONE', *, *, #280, .F. ) ;
#389 = SURFACE_STYLE_FILL_AREA ( #281 ) ;
#390 = CARTESIAN_POINT ( 'NONE',  ( -0.2500499950009997807, -0.04999999999999996808, -3.690000000000000391 ) ) ;
#391 = DIRECTION ( 'NONE',  ( -0.000000000000000000, -0.000000000000000000, 1.000000000000000000 ) ) ;
#392 = DIRECTION ( 'NONE',  ( 0.000000000000000000, 0.000000000000000000, -1.000000000000000000 ) ) ;
#393 = CARTESIAN_POINT ( 'NONE',  ( 0.000000000000000000, 0.000000000000000000, -1.909999999999999920 ) ) ;
#394 = CARTESIAN_POINT ( 'NONE',  ( 0.000000000000000000, 0.000000000000000000, 0.000000000000000000 ) ) ;
#395 = CARTESIAN_POINT ( 'NONE',  ( 0.2500499950009997252, -0.05000000000000004441, -3.690000000000000391 ) ) ;
#396 = VECTOR ( 'NONE', #205, 1000.000000000000000 ) ;
#397 = CARTESIAN_POINT ( 'NONE',  ( -0.2500499950009997807, 0.04999999999999993339, -2.420000000000000373 ) ) ;
#398 = CIRCLE ( 'NONE', #285, 0.2550000000000000044 ) ;
#399 = CARTESIAN_POINT ( 'NONE',  ( -0.2500499950009997807, 0.04999999999999993339, -3.690000000000000391 ) ) ;
#400 = ADVANCED_FACE ( 'NONE', ( #338 ), #250, .T. ) ;
#401 = EDGE_CURVE ( 'NONE', #94, #211, #317, .T. ) ;
#402 = CARTESIAN_POINT ( 'NONE',  ( 0.000000000000000000, 0.000000000000000000, 0.000000000000000000 ) ) ;
#403 = FACE_OUTER_BOUND ( 'NONE', #33, .T. ) ;
#404 = EDGE_LOOP ( 'NONE', ( #29, #347, #184, #349 ) ) ;
#405 = LINE ( 'NONE', #309, #125 ) ;
#406 = ORIENTED_EDGE ( 'NONE', *, *, #177, .T. ) ;
ENDSEC;
END-ISO-10303-21;
