ISO-10303-21;
HEADER;
FILE_DESCRIPTION (( 'STEP AP214' ),
    '1' );
FILE_NAME ('FM1016-4.step',
    '2021-04-21T15:49:54',
    ( '' ),
    ( '' ),
    'SwSTEP 2.0',
    'SolidWorks 2020',
    '' );
FILE_SCHEMA (( 'AUTOMOTIVE_DESIGN' ));
ENDSEC;

DATA;
#1 = ORIENTED_EDGE ( 'NONE', *, *, #31, .T. ) ;
#2 = AXIS2_PLACEMENT_3D ( 'NONE', #269, #294, #24 ) ;
#3 = FACE_OUTER_BOUND ( 'NONE', #150, .T. ) ;
#4 = ORIENTED_EDGE ( 'NONE', *, *, #256, .F. ) ;
#5 = CARTESIAN_POINT ( 'NONE',  ( 0.000000000000000000, 0.000000000000000000, -1.270000000000000018 ) ) ;
#6 = SURFACE_SIDE_STYLE ('',( #8 ) ) ;
#7 = DIRECTION ( 'NONE',  ( 1.000000000000000000, 0.000000000000000000, 0.000000000000000000 ) ) ;
#8 = SURFACE_STYLE_FILL_AREA ( #63 ) ;
#9 = DIRECTION ( 'NONE',  ( 0.000000000000000000, 0.000000000000000000, -1.000000000000000000 ) ) ;
#10 = CARTESIAN_POINT ( 'NONE',  ( 0.1414213562373095034, -0.05000000000000003747, -1.910000000000000142 ) ) ;
#11 = CARTESIAN_POINT ( 'NONE',  ( 0.1500000000000000222, 0.000000000000000000, -1.910000000000000142 ) ) ;
#12 = CARTESIAN_POINT ( 'NONE',  ( 0.1414213562373095034, 0.04999999999999994033, -1.910000000000000142 ) ) ;
#13 = CARTESIAN_POINT ( 'NONE',  ( 0.1414213562373095034, 0.04999999999999994033, -1.910000000000000142 ) ) ;
#14 = AXIS2_PLACEMENT_3D ( 'NONE', #36, #225, #239 ) ;
#15 = PRODUCT_CONTEXT ( 'NONE', #47, 'mechanical' ) ;
#16 = EDGE_CURVE ( 'NONE', #229, #72, #23, .T. ) ;
#17 = ORIENTED_EDGE ( 'NONE', *, *, #126, .T. ) ;
#18 = ORIENTED_EDGE ( 'NONE', *, *, #126, .F. ) ;
#19 = ADVANCED_BREP_SHAPE_REPRESENTATION ( 'FM1016-4', ( #173, #146 ), #231 ) ;
#20 = ORIENTED_EDGE ( 'NONE', *, *, #143, .T. ) ;
#21 = DIRECTION ( 'NONE',  ( -1.000000000000000000, 2.395770963567771752E-16, 0.000000000000000000 ) ) ;
#22 = PRESENTATION_LAYER_ASSIGNMENT (  '', '', ( #168 ) ) ;
#23 = LINE ( 'NONE', #232, #212 ) ;
#24 = DIRECTION ( 'NONE',  ( 0.000000000000000000, 0.000000000000000000, -1.000000000000000000 ) ) ;
#25 = DIRECTION ( 'NONE',  ( -1.000000000000000000, 0.000000000000000000, 0.000000000000000000 ) ) ;
#26 = LINE ( 'NONE', #220, #122 ) ;
#27 = CYLINDRICAL_SURFACE ( 'NONE', #66, 0.1499999999999999944 ) ;
#28 = EDGE_CURVE ( 'NONE', #72, #209, #124, .T. ) ;
#29 = DIRECTION ( 'NONE',  ( 1.000000000000000000, 0.000000000000000000, 0.000000000000000000 ) ) ;
#30 = APPLICATION_CONTEXT ( 'automotive_design' ) ;
#31 = EDGE_CURVE ( 'NONE', #48, #154, #214, .T. ) ;
#32 = DIRECTION ( 'NONE',  ( -0.000000000000000000, -0.000000000000000000, 1.000000000000000000 ) ) ;
#33 = STYLED_ITEM ( 'NONE', ( #297 ), #19 ) ;
#34 = CARTESIAN_POINT ( 'NONE',  ( -0.1414213562373095034, -0.04999999999999996808, -1.910000000000000142 ) ) ;
#35 = DIRECTION ( 'NONE',  ( -0.000000000000000000, -0.000000000000000000, -1.000000000000000000 ) ) ;
#36 = CARTESIAN_POINT ( 'NONE',  ( 0.000000000000000000, 0.000000000000000000, -1.270000000000000018 ) ) ;
#37 = ORIENTED_EDGE ( 'NONE', *, *, #182, .F. ) ;
#38 = DIRECTION ( 'NONE',  ( -1.000000000000000000, 2.395770963567771752E-16, 0.000000000000000000 ) ) ;
#39 = DIRECTION ( 'NONE',  ( 1.000000000000000000, 0.000000000000000000, 0.000000000000000000 ) ) ;
#40 = ORIENTED_EDGE ( 'NONE', *, *, #279, .T. ) ;
#41 = CARTESIAN_POINT ( 'NONE',  ( 0.000000000000000000, 0.000000000000000000, 0.000000000000000000 ) ) ;
#42 = ADVANCED_FACE ( 'NONE', ( #3 ), #99, .F. ) ;
#43 = EDGE_LOOP ( 'NONE', ( #172, #252, #18 ) ) ;
#44 = PRODUCT_DEFINITION_SHAPE ( 'NONE', 'NONE',  #292 ) ;
#45 = CARTESIAN_POINT ( 'NONE',  ( 0.1414213562373095034, 0.04999999999999994033, -1.910000000000000142 ) ) ;
#46 =( LENGTH_UNIT ( ) NAMED_UNIT ( * ) SI_UNIT ( .MILLI., .METRE. ) );
#47 = APPLICATION_CONTEXT ( 'automotive_design' ) ;
#48 = VERTEX_POINT ( 'NONE', #189 ) ;
#49 = VECTOR ( 'NONE', #162, 1000.000000000000000 ) ;
#50 = VECTOR ( 'NONE', #152, 1000.000000000000000 ) ;
#51 = DIRECTION ( 'NONE',  ( 0.000000000000000000, 0.000000000000000000, 1.000000000000000000 ) ) ;
#52 = ORIENTED_EDGE ( 'NONE', *, *, #143, .F. ) ;
#53 = VERTEX_POINT ( 'NONE', #11 ) ;
#54 = DIRECTION ( 'NONE',  ( 0.000000000000000000, 0.000000000000000000, 1.000000000000000000 ) ) ;
#55 = ORIENTED_EDGE ( 'NONE', *, *, #257, .F. ) ;
#56 = AXIS2_PLACEMENT_3D ( 'NONE', #264, #9, #25 ) ;
#57 = PLANE ( 'NONE',  #178 ) ;
#58 = DIRECTION ( 'NONE',  ( 1.000000000000000000, 0.000000000000000000, 0.000000000000000000 ) ) ;
#59 = SURFACE_SIDE_STYLE ('',( #73 ) ) ;
#60 = SURFACE_STYLE_USAGE ( .BOTH. , #6 ) ;
#61 = AXIS2_PLACEMENT_3D ( 'NONE', #165, #245, #39 ) ;
#62 = SURFACE_STYLE_USAGE ( .BOTH. , #59 ) ;
#63 = FILL_AREA_STYLE ('',( #287 ) ) ;
#64 = LINE ( 'NONE', #134, #49 ) ;
#65 = EDGE_CURVE ( 'NONE', #275, #48, #64, .T. ) ;
#66 = AXIS2_PLACEMENT_3D ( 'NONE', #123, #51, #7 ) ;
#67 = DIRECTION ( 'NONE',  ( 1.000000000000000000, 0.000000000000000000, -0.000000000000000000 ) ) ;
#68 = CIRCLE ( 'NONE', #218, 0.1499999999999999944 ) ;
#69 = PLANE ( 'NONE',  #271 ) ;
#70 = CARTESIAN_POINT ( 'NONE',  ( 0.000000000000000000, 0.000000000000000000, -0.1499999999999999667 ) ) ;
#71 = ADVANCED_FACE ( 'NONE', ( #296 ), #111, .F. ) ;
#72 = VERTEX_POINT ( 'NONE', #274 ) ;
#73 = SURFACE_STYLE_FILL_AREA ( #118 ) ;
#74 = VERTEX_POINT ( 'NONE', #12 ) ;
#75 = ORIENTED_EDGE ( 'NONE', *, *, #256, .T. ) ;
#76 = ORIENTED_EDGE ( 'NONE', *, *, #151, .F. ) ;
#77 = EDGE_CURVE ( 'NONE', #184, #209, #242, .T. ) ;
#78 = CARTESIAN_POINT ( 'NONE',  ( 0.1499999999999999944, 0.000000000000000000, -1.270000000000000018 ) ) ;
#79 = DIRECTION ( 'NONE',  ( 0.000000000000000000, -1.000000000000000000, -0.000000000000000000 ) ) ;
#80 = FACE_OUTER_BOUND ( 'NONE', #194, .T. ) ;
#81 =( LENGTH_UNIT ( ) NAMED_UNIT ( * ) SI_UNIT ( .MILLI., .METRE. ) );
#82 = CARTESIAN_POINT ( 'NONE',  ( 0.000000000000000000, 0.000000000000000000, -1.910000000000000142 ) ) ;
#83 = ADVANCED_FACE ( 'NONE', ( #298 ), #88, .T. ) ;
#84 = DIRECTION ( 'NONE',  ( 0.000000000000000000, 0.000000000000000000, 1.000000000000000000 ) ) ;
#85 = CIRCLE ( 'NONE', #167, 0.1499999999999999944 ) ;
#86 = DIRECTION ( 'NONE',  ( -1.000000000000000000, 0.000000000000000000, 0.000000000000000000 ) ) ;
#87 = ADVANCED_FACE ( 'NONE', ( #202 ), #90, .T. ) ;
#88 = SPHERICAL_SURFACE ( 'NONE', #115, 0.1499999999999999944 ) ;
#89 = DIRECTION ( 'NONE',  ( -1.000000000000000000, 0.000000000000000000, 0.000000000000000000 ) ) ;
#90 = SPHERICAL_SURFACE ( 'NONE', #163, 0.1499999999999999944 ) ;
#91 = VECTOR ( 'NONE', #113, 1000.000000000000000 ) ;
#92 = EDGE_CURVE ( 'NONE', #204, #285, #217, .T. ) ;
#93 = EDGE_CURVE ( 'NONE', #209, #72, #226, .T. ) ;
#94 = AXIS2_PLACEMENT_3D ( 'NONE', #161, #289, #89 ) ;
#95 = VERTEX_POINT ( 'NONE', #223 ) ;
#96 = ORIENTED_EDGE ( 'NONE', *, *, #65, .T. ) ;
#97 = EDGE_LOOP ( 'NONE', ( #281, #117, #20, #114, #301, #75 ) ) ;
#98 = AXIS2_PLACEMENT_3D ( 'NONE', #200, #293, #131 ) ;
#99 = PLANE ( 'NONE',  #193 ) ;
#100 = EDGE_CURVE ( 'NONE', #74, #53, #140, .T. ) ;
#101 = FACE_OUTER_BOUND ( 'NONE', #190, .T. ) ;
#102 = COLOUR_RGB ( '',0.7921568627450980005, 0.8196078431372548767, 0.9333333333333333481 ) ;
#103 = CARTESIAN_POINT ( 'NONE',  ( 0.000000000000000000, 0.000000000000000000, -1.270000000000000018 ) ) ;
#104 = DIRECTION ( 'NONE',  ( -1.000000000000000000, 1.224646799147352961E-16, 0.000000000000000000 ) ) ;
#105 = PRESENTATION_STYLE_ASSIGNMENT (( #60 ) ) ;
#106 = DIRECTION ( 'NONE',  ( -1.000000000000000000, 0.000000000000000000, 0.000000000000000000 ) ) ;
#107 = MECHANICAL_DESIGN_GEOMETRIC_PRESENTATION_REPRESENTATION (  '', ( #33 ), #260 ) ;
#108 = CARTESIAN_POINT ( 'NONE',  ( 0.000000000000000000, 0.000000000000000000, -1.910000000000000142 ) ) ;
#109 = CARTESIAN_POINT ( 'NONE',  ( 0.000000000000000000, 0.000000000000000000, -0.1499999999999999667 ) ) ;
#110 = APPLICATION_PROTOCOL_DEFINITION ( 'draft international standard', 'automotive_design', 1998, #30 ) ;
#111 = PLANE ( 'NONE',  #14 ) ;
#112 = CLOSED_SHELL ( 'NONE', ( #87, #227, #192, #71, #155, #42, #268, #130, #83 ) ) ;
#113 = DIRECTION ( 'NONE',  ( -0.000000000000000000, -0.000000000000000000, 1.000000000000000000 ) ) ;
#114 = ORIENTED_EDGE ( 'NONE', *, *, #100, .T. ) ;
#115 = AXIS2_PLACEMENT_3D ( 'NONE', #109, #181, #183 ) ;
#116 = ORIENTED_EDGE ( 'NONE', *, *, #28, .T. ) ;
#117 = ORIENTED_EDGE ( 'NONE', *, *, #151, .T. ) ;
#118 = FILL_AREA_STYLE ('',( #210 ) ) ;
#119 = ORIENTED_EDGE ( 'NONE', *, *, #93, .T. ) ;
#120 = ORIENTED_EDGE ( 'NONE', *, *, #187, .F. ) ;
#121 =( NAMED_UNIT ( * ) PLANE_ANGLE_UNIT ( ) SI_UNIT ( $, .RADIAN. ) );
#122 = VECTOR ( 'NONE', #84, 1000.000000000000000 ) ;
#123 = CARTESIAN_POINT ( 'NONE',  ( 0.000000000000000000, 0.000000000000000000, -1.270000000000000018 ) ) ;
#124 = LINE ( 'NONE', #234, #282 ) ;
#125 = DIRECTION ( 'NONE',  ( 1.000000000000000000, 0.000000000000000000, 0.000000000000000000 ) ) ;
#126 = EDGE_CURVE ( 'NONE', #204, #95, #139, .T. ) ;
#127 = DIRECTION ( 'NONE',  ( 0.000000000000000000, 0.000000000000000000, 1.000000000000000000 ) ) ;
#128 = CARTESIAN_POINT ( 'NONE',  ( 0.000000000000000000, 0.000000000000000000, -1.270000000000000018 ) ) ;
#129 = CARTESIAN_POINT ( 'NONE',  ( 0.000000000000000000, 0.000000000000000000, -1.910000000000000142 ) ) ;
#130 = ADVANCED_FACE ( 'NONE', ( #236 ), #57, .T. ) ;
#131 = DIRECTION ( 'NONE',  ( 1.000000000000000000, 0.000000000000000000, 0.000000000000000000 ) ) ;
#132 = VECTOR ( 'NONE', #160, 1000.000000000000000 ) ;
#133 = CARTESIAN_POINT ( 'NONE',  ( -0.1414213562373095034, 0.04999999999999994033, -1.910000000000000142 ) ) ;
#134 = CARTESIAN_POINT ( 'NONE',  ( -0.1414213562373095034, 0.04999999999999994033, -1.910000000000000142 ) ) ;
#135 = PRODUCT ( 'FM1016-4', 'FM1016-4', '', ( #15 ) ) ;
#136 =( LENGTH_UNIT ( ) NAMED_UNIT ( * ) SI_UNIT ( .MILLI., .METRE. ) );
#137 = EDGE_CURVE ( 'NONE', #154, #48, #85, .T. ) ;
#138 = DIRECTION ( 'NONE',  ( 0.000000000000000000, 1.000000000000000000, 0.000000000000000000 ) ) ;
#139 = CIRCLE ( 'NONE', #2, 0.1499999999999999667 ) ;
#140 = CIRCLE ( 'NONE', #267, 0.1500000000000000222 ) ;
#141 =( NAMED_UNIT ( * ) SI_UNIT ( $, .STERADIAN. ) SOLID_ANGLE_UNIT ( ) );
#142 = EDGE_LOOP ( 'NONE', ( #37, #300, #17 ) ) ;
#143 = EDGE_CURVE ( 'NONE', #275, #74, #199, .T. ) ;
#144 = EDGE_CURVE ( 'NONE', #211, #285, #26, .T. ) ;
#145 = EDGE_LOOP ( 'NONE', ( #233, #243 ) ) ;
#146 = AXIS2_PLACEMENT_3D ( 'NONE', #41, #299, #276 ) ;
#147 = ORIENTED_EDGE ( 'NONE', *, *, #28, .F. ) ;
#148 = UNCERTAINTY_MEASURE_WITH_UNIT (LENGTH_MEASURE( 1.000000000000000082E-05 ), #136, 'distance_accuracy_value', 'NONE');
#149 = PRODUCT_DEFINITION_FORMATION_WITH_SPECIFIED_SOURCE ( 'ANY', '', #135, .NOT_KNOWN. ) ;
#150 = EDGE_LOOP ( 'NONE', ( #1, #254, #52, #96 ) ) ;
#151 = EDGE_CURVE ( 'NONE', #211, #275, #188, .T. ) ;
#152 = DIRECTION ( 'NONE',  ( -1.000000000000000000, 2.395770963567771752E-16, 0.000000000000000000 ) ) ;
#153 = DIRECTION ( 'NONE',  ( -0.000000000000000000, -0.000000000000000000, 1.000000000000000000 ) ) ;
#154 = VERTEX_POINT ( 'NONE', #288 ) ;
#155 = ADVANCED_FACE ( 'NONE', ( #101 ), #156, .T. ) ;
#156 = CYLINDRICAL_SURFACE ( 'NONE', #222, 0.1499999999999999944 ) ;
#157 = PRODUCT_DEFINITION_CONTEXT ( 'detailed design', #30, 'design' ) ;
#158 = CARTESIAN_POINT ( 'NONE',  ( -0.1414213562373095034, -0.04999999999999996808, -1.270000000000000018 ) ) ;
#159 = VECTOR ( 'NONE', #32, 1000.000000000000000 ) ;
#160 = DIRECTION ( 'NONE',  ( 1.000000000000000000, -0.000000000000000000, -0.000000000000000000 ) ) ;
#161 = CARTESIAN_POINT ( 'NONE',  ( 0.000000000000000000, 0.000000000000000000, -1.910000000000000142 ) ) ;
#162 = DIRECTION ( 'NONE',  ( -0.000000000000000000, -0.000000000000000000, 1.000000000000000000 ) ) ;
#163 = AXIS2_PLACEMENT_3D ( 'NONE', #70, #138, #273 ) ;
#164 =( GEOMETRIC_REPRESENTATION_CONTEXT ( 3 ) GLOBAL_UNCERTAINTY_ASSIGNED_CONTEXT ( ( #247 ) ) GLOBAL_UNIT_ASSIGNED_CONTEXT ( ( #81, #290, #286 ) ) REPRESENTATION_CONTEXT ( 'NONE', 'WORKASPACE' ) );
#165 = CARTESIAN_POINT ( 'NONE',  ( 0.000000000000000000, 0.000000000000000000, -0.1499999999999999667 ) ) ;
#166 = APPLICATION_PROTOCOL_DEFINITION ( 'draft international standard', 'automotive_design', 1998, #47 ) ;
#167 = AXIS2_PLACEMENT_3D ( 'NONE', #5, #258, #125 ) ;
#168 = STYLED_ITEM ( 'NONE', ( #105 ), #173 ) ;
#169 = ORIENTED_EDGE ( 'NONE', *, *, #92, .T. ) ;
#170 = CARTESIAN_POINT ( 'NONE',  ( 0.1414213562373095034, 0.04999999999999994033, -1.270000000000000018 ) ) ;
#171 = ORIENTED_EDGE ( 'NONE', *, *, #144, .F. ) ;
#172 = ORIENTED_EDGE ( 'NONE', *, *, #263, .F. ) ;
#173 = MANIFOLD_SOLID_BREP ( 'Fillet1', #112 ) ;
#174 = DIRECTION ( 'NONE',  ( 0.000000000000000000, 0.000000000000000000, -1.000000000000000000 ) ) ;
#175 = DIRECTION ( 'NONE',  ( -1.000000000000000000, 0.000000000000000000, -0.000000000000000000 ) ) ;
#176 = LINE ( 'NONE', #78, #230 ) ;
#177 = CARTESIAN_POINT ( 'NONE',  ( -0.1499999999999999944, 1.836970198721029441E-17, -1.910000000000000142 ) ) ;
#178 = AXIS2_PLACEMENT_3D ( 'NONE', #129, #198, #175 ) ;
#179 = PRESENTATION_LAYER_ASSIGNMENT (  '', '', ( #33 ) ) ;
#180 = DIRECTION ( 'NONE',  ( 0.000000000000000000, 0.000000000000000000, -1.000000000000000000 ) ) ;
#181 = DIRECTION ( 'NONE',  ( 0.000000000000000000, 1.000000000000000000, 0.000000000000000000 ) ) ;
#182 = EDGE_CURVE ( 'NONE', #285, #95, #277, .T. ) ;
#183 = DIRECTION ( 'NONE',  ( 1.000000000000000000, 0.000000000000000000, 0.000000000000000000 ) ) ;
#184 = VERTEX_POINT ( 'NONE', #237 ) ;
#185 = ORIENTED_EDGE ( 'NONE', *, *, #16, .F. ) ;
#186 = SHAPE_DEFINITION_REPRESENTATION ( #44, #19 ) ;
#187 = EDGE_CURVE ( 'NONE', #184, #211, #207, .T. ) ;
#188 = CIRCLE ( 'NONE', #213, 0.1499999999999999944 ) ;
#189 = CARTESIAN_POINT ( 'NONE',  ( -0.1414213562373095034, 0.04999999999999994033, -1.270000000000000018 ) ) ;
#190 = EDGE_LOOP ( 'NONE', ( #171, #120, #270, #119, #185, #197, #235, #169 ) ) ;
#191 = EDGE_LOOP ( 'NONE', ( #76, #228, #215, #55, #280, #40, #255, #208 ) ) ;
#192 = ADVANCED_FACE ( 'NONE', ( #80 ), #265, .F. ) ;
#193 = AXIS2_PLACEMENT_3D ( 'NONE', #45, #79, #174 ) ;
#194 = EDGE_LOOP ( 'NONE', ( #147, #248 ) ) ;
#195 = MECHANICAL_DESIGN_GEOMETRIC_PRESENTATION_REPRESENTATION (  '', ( #168 ), #164 ) ;
#196 = LINE ( 'NONE', #253, #50 ) ;
#197 = ORIENTED_EDGE ( 'NONE', *, *, #205, .F. ) ;
#198 = DIRECTION ( 'NONE',  ( 0.000000000000000000, 0.000000000000000000, -1.000000000000000000 ) ) ;
#199 = LINE ( 'NONE', #219, #132 ) ;
#200 = CARTESIAN_POINT ( 'NONE',  ( 0.000000000000000000, 0.000000000000000000, -1.270000000000000018 ) ) ;
#201 = DIRECTION ( 'NONE',  ( 0.000000000000000000, 0.000000000000000000, -1.000000000000000000 ) ) ;
#202 = FACE_OUTER_BOUND ( 'NONE', #43, .T. ) ;
#203 = CIRCLE ( 'NONE', #94, 0.1500000000000000222 ) ;
#204 = VERTEX_POINT ( 'NONE', #240 ) ;
#205 = EDGE_CURVE ( 'NONE', #53, #229, #203, .T. ) ;
#206 = VECTOR ( 'NONE', #250, 1000.000000000000000 ) ;
#207 = CIRCLE ( 'NONE', #56, 0.1499999999999999944 ) ;
#208 = ORIENTED_EDGE ( 'NONE', *, *, #65, .F. ) ;
#209 = VERTEX_POINT ( 'NONE', #158 ) ;
#210 = FILL_AREA_STYLE_COLOUR ( '', #272 ) ;
#211 = VERTEX_POINT ( 'NONE', #177 ) ;
#212 = VECTOR ( 'NONE', #153, 1000.000000000000000 ) ;
#213 = AXIS2_PLACEMENT_3D ( 'NONE', #82, #180, #106 ) ;
#214 = LINE ( 'NONE', #170, #206 ) ;
#215 = ORIENTED_EDGE ( 'NONE', *, *, #263, .T. ) ;
#216 = DIRECTION ( 'NONE',  ( 0.000000000000000000, 0.000000000000000000, 1.000000000000000000 ) ) ;
#217 = CIRCLE ( 'NONE', #61, 0.1499999999999999944 ) ;
#218 = AXIS2_PLACEMENT_3D ( 'NONE', #259, #35, #29 ) ;
#219 = CARTESIAN_POINT ( 'NONE',  ( 0.1414213562373095034, 0.04999999999999994033, -1.910000000000000142 ) ) ;
#220 = CARTESIAN_POINT ( 'NONE',  ( -0.1499999999999999944, 1.836970198721029441E-17, -1.270000000000000018 ) ) ;
#221 = FACE_OUTER_BOUND ( 'NONE', #302, .T. ) ;
#222 = AXIS2_PLACEMENT_3D ( 'NONE', #128, #127, #58 ) ;
#223 = CARTESIAN_POINT ( 'NONE',  ( 9.184850993605147205E-18, 0.000000000000000000, 2.710505431213761085E-17 ) ) ;
#224 = CARTESIAN_POINT ( 'NONE',  ( -0.1499999999999999944, 1.836970198721029441E-17, -0.1499999999999999667 ) ) ;
#225 = DIRECTION ( 'NONE',  ( 0.000000000000000000, 0.000000000000000000, 1.000000000000000000 ) ) ;
#226 = CIRCLE ( 'NONE', #98, 0.1499999999999999944 ) ;
#227 = ADVANCED_FACE ( 'NONE', ( #266 ), #27, .T. ) ;
#228 = ORIENTED_EDGE ( 'NONE', *, *, #144, .T. ) ;
#229 = VERTEX_POINT ( 'NONE', #283 ) ;
#230 = VECTOR ( 'NONE', #54, 1000.000000000000000 ) ;
#231 =( GEOMETRIC_REPRESENTATION_CONTEXT ( 3 ) GLOBAL_UNCERTAINTY_ASSIGNED_CONTEXT ( ( #251 ) ) GLOBAL_UNIT_ASSIGNED_CONTEXT ( ( #46, #121, #249 ) ) REPRESENTATION_CONTEXT ( 'NONE', 'WORKASPACE' ) );
#232 = CARTESIAN_POINT ( 'NONE',  ( 0.1414213562373095312, -0.04999999999999996808, -1.910000000000000142 ) ) ;
#233 = ORIENTED_EDGE ( 'NONE', *, *, #31, .F. ) ;
#234 = CARTESIAN_POINT ( 'NONE',  ( 0.1414213562373095034, -0.05000000000000003747, -1.270000000000000018 ) ) ;
#235 = ORIENTED_EDGE ( 'NONE', *, *, #257, .T. ) ;
#236 = FACE_OUTER_BOUND ( 'NONE', #97, .T. ) ;
#237 = CARTESIAN_POINT ( 'NONE',  ( -0.1414213562373095034, -0.04999999999999996808, -1.910000000000000142 ) ) ;
#238 = DIRECTION ( 'NONE',  ( 1.224646799147353207E-16, 1.000000000000000000, -0.000000000000000000 ) ) ;
#239 = DIRECTION ( 'NONE',  ( 1.000000000000000000, 0.000000000000000000, -0.000000000000000000 ) ) ;
#240 = CARTESIAN_POINT ( 'NONE',  ( 0.1499999999999999944, 0.000000000000000000, -0.1499999999999999667 ) ) ;
#241 = LINE ( 'NONE', #13, #91 ) ;
#242 = LINE ( 'NONE', #34, #159 ) ;
#243 = ORIENTED_EDGE ( 'NONE', *, *, #137, .F. ) ;
#244 = DIRECTION ( 'NONE',  ( 2.395770963567771752E-16, 1.000000000000000000, 0.000000000000000000 ) ) ;
#245 = DIRECTION ( 'NONE',  ( -0.000000000000000000, -0.000000000000000000, -1.000000000000000000 ) ) ;
#246 = AXIS2_PLACEMENT_3D ( 'NONE', #261, #238, #104 ) ;
#247 = UNCERTAINTY_MEASURE_WITH_UNIT (LENGTH_MEASURE( 1.000000000000000082E-05 ), #81, 'distance_accuracy_value', 'NONE');
#248 = ORIENTED_EDGE ( 'NONE', *, *, #93, .F. ) ;
#249 =( NAMED_UNIT ( * ) SI_UNIT ( $, .STERADIAN. ) SOLID_ANGLE_UNIT ( ) );
#250 = DIRECTION ( 'NONE',  ( 1.000000000000000000, -0.000000000000000000, -0.000000000000000000 ) ) ;
#251 = UNCERTAINTY_MEASURE_WITH_UNIT (LENGTH_MEASURE( 1.000000000000000082E-05 ), #46, 'distance_accuracy_value', 'NONE');
#252 = ORIENTED_EDGE ( 'NONE', *, *, #182, .T. ) ;
#253 = CARTESIAN_POINT ( 'NONE',  ( 0.1414213562373095034, -0.05000000000000003747, -1.910000000000000142 ) ) ;
#254 = ORIENTED_EDGE ( 'NONE', *, *, #279, .F. ) ;
#255 = ORIENTED_EDGE ( 'NONE', *, *, #137, .T. ) ;
#256 = EDGE_CURVE ( 'NONE', #229, #184, #196, .T. ) ;
#257 = EDGE_CURVE ( 'NONE', #53, #204, #176, .T. ) ;
#258 = DIRECTION ( 'NONE',  ( 0.000000000000000000, 0.000000000000000000, 1.000000000000000000 ) ) ;
#259 = CARTESIAN_POINT ( 'NONE',  ( 0.000000000000000000, 0.000000000000000000, -0.1499999999999999667 ) ) ;
#260 =( GEOMETRIC_REPRESENTATION_CONTEXT ( 3 ) GLOBAL_UNCERTAINTY_ASSIGNED_CONTEXT ( ( #148 ) ) GLOBAL_UNIT_ASSIGNED_CONTEXT ( ( #136, #295, #141 ) ) REPRESENTATION_CONTEXT ( 'NONE', 'WORKASPACE' ) );
#261 = CARTESIAN_POINT ( 'NONE',  ( 0.000000000000000000, 0.000000000000000000, -0.1499999999999999667 ) ) ;
#262 = PRODUCT_RELATED_PRODUCT_CATEGORY ( 'part', '', ( #135 ) ) ;
#263 = EDGE_CURVE ( 'NONE', #285, #204, #68, .T. ) ;
#264 = CARTESIAN_POINT ( 'NONE',  ( 0.000000000000000000, 0.000000000000000000, -1.910000000000000142 ) ) ;
#265 = PLANE ( 'NONE',  #291 ) ;
#266 = FACE_OUTER_BOUND ( 'NONE', #191, .T. ) ;
#267 = AXIS2_PLACEMENT_3D ( 'NONE', #108, #201, #86 ) ;
#268 = ADVANCED_FACE ( 'NONE', ( #221 ), #69, .F. ) ;
#269 = CARTESIAN_POINT ( 'NONE',  ( 0.000000000000000000, 0.000000000000000000, -0.1499999999999999667 ) ) ;
#270 = ORIENTED_EDGE ( 'NONE', *, *, #77, .T. ) ;
#271 = AXIS2_PLACEMENT_3D ( 'NONE', #10, #244, #38 ) ;
#272 = COLOUR_RGB ( '',0.7921568627450980005, 0.8196078431372548767, 0.9333333333333333481 ) ;
#273 = DIRECTION ( 'NONE',  ( 1.000000000000000000, 0.000000000000000000, 0.000000000000000000 ) ) ;
#274 = CARTESIAN_POINT ( 'NONE',  ( 0.1414213562373095034, -0.05000000000000003747, -1.270000000000000018 ) ) ;
#275 = VERTEX_POINT ( 'NONE', #133 ) ;
#276 = DIRECTION ( 'NONE',  ( 1.000000000000000000, 0.000000000000000000, 0.000000000000000000 ) ) ;
#277 = CIRCLE ( 'NONE', #246, 0.1499999999999999944 ) ;
#278 = ORIENTED_EDGE ( 'NONE', *, *, #77, .F. ) ;
#279 = EDGE_CURVE ( 'NONE', #74, #154, #241, .T. ) ;
#280 = ORIENTED_EDGE ( 'NONE', *, *, #100, .F. ) ;
#281 = ORIENTED_EDGE ( 'NONE', *, *, #187, .T. ) ;
#282 = VECTOR ( 'NONE', #21, 1000.000000000000000 ) ;
#283 = CARTESIAN_POINT ( 'NONE',  ( 0.1414213562373095312, -0.04999999999999996808, -1.910000000000000142 ) ) ;
#284 = ORIENTED_EDGE ( 'NONE', *, *, #16, .T. ) ;
#285 = VERTEX_POINT ( 'NONE', #224 ) ;
#286 =( NAMED_UNIT ( * ) SI_UNIT ( $, .STERADIAN. ) SOLID_ANGLE_UNIT ( ) );
#287 = FILL_AREA_STYLE_COLOUR ( '', #102 ) ;
#288 = CARTESIAN_POINT ( 'NONE',  ( 0.1414213562373095034, 0.04999999999999994033, -1.270000000000000018 ) ) ;
#289 = DIRECTION ( 'NONE',  ( 0.000000000000000000, 0.000000000000000000, -1.000000000000000000 ) ) ;
#290 =( NAMED_UNIT ( * ) PLANE_ANGLE_UNIT ( ) SI_UNIT ( $, .RADIAN. ) );
#291 = AXIS2_PLACEMENT_3D ( 'NONE', #103, #216, #67 ) ;
#292 = PRODUCT_DEFINITION ( 'UNKNOWN', '', #149, #157 ) ;
#293 = DIRECTION ( 'NONE',  ( 0.000000000000000000, 0.000000000000000000, 1.000000000000000000 ) ) ;
#294 = DIRECTION ( 'NONE',  ( 0.000000000000000000, -1.000000000000000000, 0.000000000000000000 ) ) ;
#295 =( NAMED_UNIT ( * ) PLANE_ANGLE_UNIT ( ) SI_UNIT ( $, .RADIAN. ) );
#296 = FACE_OUTER_BOUND ( 'NONE', #145, .T. ) ;
#297 = PRESENTATION_STYLE_ASSIGNMENT (( #62 ) ) ;
#298 = FACE_OUTER_BOUND ( 'NONE', #142, .T. ) ;
#299 = DIRECTION ( 'NONE',  ( 0.000000000000000000, 0.000000000000000000, 1.000000000000000000 ) ) ;
#300 = ORIENTED_EDGE ( 'NONE', *, *, #92, .F. ) ;
#301 = ORIENTED_EDGE ( 'NONE', *, *, #205, .T. ) ;
#302 = EDGE_LOOP ( 'NONE', ( #116, #278, #4, #284 ) ) ;
ENDSEC;
END-ISO-10303-21;
