ISO-10303-21;
HEADER;
FILE_DESCRIPTION (( 'STEP AP214' ),
    '1' );
FILE_NAME ('FM1016-7.step',
    '2021-04-21T15:50:08',
    ( '' ),
    ( '' ),
    'SwSTEP 2.0',
    'SolidWorks 2020',
    '' );
FILE_SCHEMA (( 'AUTOMOTIVE_DESIGN' ));
ENDSEC;

DATA;
#1 = ORIENTED_EDGE ( 'NONE', *, *, #219, .F. ) ;
#2 = CIRCLE ( 'NONE', #141, 0.1900000000000000022 ) ;
#3 = VERTEX_POINT ( 'NONE', #105 ) ;
#4 = CARTESIAN_POINT ( 'NONE',  ( 0.000000000000000000, 0.000000000000000000, -0.1900000000000000577 ) ) ;
#5 = CARTESIAN_POINT ( 'NONE',  ( 0.1900000000000000022, 0.000000000000000000, -3.180000000000000160 ) ) ;
#6 = DIRECTION ( 'NONE',  ( 0.000000000000000000, 0.000000000000000000, -1.000000000000000000 ) ) ;
#7 = ADVANCED_FACE ( 'NONE', ( #203 ), #11, .T. ) ;
#8 = FACE_OUTER_BOUND ( 'NONE', #53, .T. ) ;
#9 = ORIENTED_EDGE ( 'NONE', *, *, #257, .F. ) ;
#10 = PRESENTATION_STYLE_ASSIGNMENT (( #102 ) ) ;
#11 = CYLINDRICAL_SURFACE ( 'NONE', #202, 0.1900000000000000022 ) ;
#12 = ORIENTED_EDGE ( 'NONE', *, *, #95, .F. ) ;
#13 = LINE ( 'NONE', #280, #215 ) ;
#14 = VERTEX_POINT ( 'NONE', #5 ) ;
#15 = DIRECTION ( 'NONE',  ( -1.000000000000000000, 0.000000000000000000, 0.000000000000000000 ) ) ;
#16 = CLOSED_SHELL ( 'NONE', ( #70, #64, #88, #86, #7, #171, #59, #169, #123 ) ) ;
#17 = DIRECTION ( 'NONE',  ( -1.000000000000000000, 2.587728397942912500E-16, 0.000000000000000000 ) ) ;
#18 = PRODUCT_RELATED_PRODUCT_CATEGORY ( 'part', '', ( #271 ) ) ;
#19 = PRESENTATION_LAYER_ASSIGNMENT (  '', '', ( #262 ) ) ;
#20 = CARTESIAN_POINT ( 'NONE',  ( 0.1900000000000000022, 0.000000000000000000, -0.1900000000000000577 ) ) ;
#21 = EDGE_CURVE ( 'NONE', #122, #3, #13, .T. ) ;
#22 = EDGE_CURVE ( 'NONE', #138, #195, #265, .T. ) ;
#23 = DIRECTION ( 'NONE',  ( 0.000000000000000000, -1.000000000000000000, -0.000000000000000000 ) ) ;
#24 = AXIS2_PLACEMENT_3D ( 'NONE', #231, #158, #187 ) ;
#25 = PRESENTATION_LAYER_ASSIGNMENT (  '', '', ( #242 ) ) ;
#26 = ORIENTED_EDGE ( 'NONE', *, *, #283, .F. ) ;
#27 = CARTESIAN_POINT ( 'NONE',  ( 0.000000000000000000, 0.000000000000000000, -3.180000000000000160 ) ) ;
#28 = PLANE ( 'NONE',  #277 ) ;
#29 = DIRECTION ( 'NONE',  ( 0.000000000000000000, 0.000000000000000000, -1.000000000000000000 ) ) ;
#30 = PRODUCT_DEFINITION_FORMATION_WITH_SPECIFIED_SOURCE ( 'ANY', '', #271, .NOT_KNOWN. ) ;
#31 = CARTESIAN_POINT ( 'NONE',  ( -0.1833030277982335976, 0.04999999999999994033, -3.180000000000000160 ) ) ;
#32 = CARTESIAN_POINT ( 'NONE',  ( 0.1833030277982335976, 0.04999999999999994033, -2.160000000000000142 ) ) ;
#33 = DIRECTION ( 'NONE',  ( -1.000000000000000000, 2.587728397942912500E-16, 0.000000000000000000 ) ) ;
#34 = ORIENTED_EDGE ( 'NONE', *, *, #192, .T. ) ;
#35 = PLANE ( 'NONE',  #118 ) ;
#36 = CIRCLE ( 'NONE', #276, 0.1900000000000000022 ) ;
#37 =( GEOMETRIC_REPRESENTATION_CONTEXT ( 3 ) GLOBAL_UNCERTAINTY_ASSIGNED_CONTEXT ( ( #72 ) ) GLOBAL_UNIT_ASSIGNED_CONTEXT ( ( #131, #74, #71 ) ) REPRESENTATION_CONTEXT ( 'NONE', 'WORKASPACE' ) );
#38 = EDGE_LOOP ( 'NONE', ( #191, #92, #155, #79 ) ) ;
#39 = DIRECTION ( 'NONE',  ( -1.000000000000000000, 0.000000000000000000, 0.000000000000000000 ) ) ;
#40 = ORIENTED_EDGE ( 'NONE', *, *, #95, .T. ) ;
#41 = CARTESIAN_POINT ( 'NONE',  ( 0.1833030277982335976, -0.05000000000000003053, -3.180000000000000160 ) ) ;
#42 = COLOUR_RGB ( '',0.7921568627450980005, 0.8196078431372548767, 0.9333333333333333481 ) ;
#43 = CARTESIAN_POINT ( 'NONE',  ( 0.000000000000000000, 0.000000000000000000, -3.180000000000000160 ) ) ;
#44 = FACE_OUTER_BOUND ( 'NONE', #253, .T. ) ;
#45 = AXIS2_PLACEMENT_3D ( 'NONE', #174, #246, #127 ) ;
#46 = ORIENTED_EDGE ( 'NONE', *, *, #85, .T. ) ;
#47 = ORIENTED_EDGE ( 'NONE', *, *, #241, .F. ) ;
#48 = DIRECTION ( 'NONE',  ( -1.000000000000000000, 0.000000000000000000, -0.000000000000000000 ) ) ;
#49 = PLANE ( 'NONE',  #198 ) ;
#50 = ORIENTED_EDGE ( 'NONE', *, *, #221, .F. ) ;
#51 = DIRECTION ( 'NONE',  ( 0.000000000000000000, 0.000000000000000000, 1.000000000000000000 ) ) ;
#52 = CARTESIAN_POINT ( 'NONE',  ( 0.000000000000000000, 0.000000000000000000, -0.1900000000000000577 ) ) ;
#53 = EDGE_LOOP ( 'NONE', ( #248, #26 ) ) ;
#54 = FACE_OUTER_BOUND ( 'NONE', #162, .T. ) ;
#55 = ORIENTED_EDGE ( 'NONE', *, *, #295, .T. ) ;
#56 = DIRECTION ( 'NONE',  ( -0.000000000000000000, -0.000000000000000000, -1.000000000000000000 ) ) ;
#57 = ORIENTED_EDGE ( 'NONE', *, *, #217, .T. ) ;
#58 = PRODUCT_CONTEXT ( 'NONE', #129, 'mechanical' ) ;
#59 = ADVANCED_FACE ( 'NONE', ( #119 ), #49, .F. ) ;
#60 = AXIS2_PLACEMENT_3D ( 'NONE', #290, #206, #62 ) ;
#61 = CIRCLE ( 'NONE', #249, 0.1900000000000000022 ) ;
#62 = DIRECTION ( 'NONE',  ( 1.000000000000000000, 0.000000000000000000, -0.000000000000000000 ) ) ;
#63 = CARTESIAN_POINT ( 'NONE',  ( 0.000000000000000000, 0.000000000000000000, 0.000000000000000000 ) ) ;
#64 = ADVANCED_FACE ( 'NONE', ( #97 ), #266, .T. ) ;
#65 = EDGE_CURVE ( 'NONE', #93, #101, #69, .T. ) ;
#66 = DIRECTION ( 'NONE',  ( 1.000000000000000000, 0.000000000000000000, 0.000000000000000000 ) ) ;
#67 = VERTEX_POINT ( 'NONE', #73 ) ;
#68 = SPHERICAL_SURFACE ( 'NONE', #173, 0.1900000000000000022 ) ;
#69 = LINE ( 'NONE', #41, #237 ) ;
#70 = ADVANCED_FACE ( 'NONE', ( #252 ), #225, .T. ) ;
#71 =( NAMED_UNIT ( * ) SI_UNIT ( $, .STERADIAN. ) SOLID_ANGLE_UNIT ( ) );
#72 = UNCERTAINTY_MEASURE_WITH_UNIT (LENGTH_MEASURE( 1.000000000000000082E-05 ), #131, 'distance_accuracy_value', 'NONE');
#73 = CARTESIAN_POINT ( 'NONE',  ( 1.163414459189985590E-17, 0.000000000000000000, -5.421010862427522170E-17 ) ) ;
#74 =( NAMED_UNIT ( * ) PLANE_ANGLE_UNIT ( ) SI_UNIT ( $, .RADIAN. ) );
#75 = DIRECTION ( 'NONE',  ( 0.000000000000000000, 0.000000000000000000, 1.000000000000000000 ) ) ;
#76 = VERTEX_POINT ( 'NONE', #31 ) ;
#77 = CARTESIAN_POINT ( 'NONE',  ( -0.1900000000000000022, 2.326828918379971180E-17, -2.160000000000000142 ) ) ;
#78 = DIRECTION ( 'NONE',  ( 1.000000000000000000, -0.000000000000000000, -0.000000000000000000 ) ) ;
#79 = ORIENTED_EDGE ( 'NONE', *, *, #255, .T. ) ;
#80 = DIRECTION ( 'NONE',  ( -1.000000000000000000, 1.224646799147353207E-16, 0.000000000000000000 ) ) ;
#81 = VECTOR ( 'NONE', #17, 1000.000000000000000 ) ;
#82 = COLOUR_RGB ( '',0.7921568627450980005, 0.8196078431372548767, 0.9333333333333333481 ) ;
#83 = DIRECTION ( 'NONE',  ( 0.000000000000000000, 0.000000000000000000, 1.000000000000000000 ) ) ;
#84 = DIRECTION ( 'NONE',  ( 0.000000000000000000, 1.000000000000000000, 0.000000000000000000 ) ) ;
#85 = EDGE_CURVE ( 'NONE', #93, #154, #190, .T. ) ;
#86 = ADVANCED_FACE ( 'NONE', ( #54 ), #35, .F. ) ;
#87 = LINE ( 'NONE', #150, #108 ) ;
#88 = ADVANCED_FACE ( 'NONE', ( #8 ), #134, .F. ) ;
#89 = EDGE_CURVE ( 'NONE', #76, #122, #161, .T. ) ;
#90 = CARTESIAN_POINT ( 'NONE',  ( 0.1833030277982335976, -0.05000000000000005135, -2.160000000000000142 ) ) ;
#91 = DIRECTION ( 'NONE',  ( 1.224646799147353207E-16, 1.000000000000000000, -0.000000000000000000 ) ) ;
#92 = ORIENTED_EDGE ( 'NONE', *, *, #21, .F. ) ;
#93 = VERTEX_POINT ( 'NONE', #172 ) ;
#94 = DIRECTION ( 'NONE',  ( 0.000000000000000000, 0.000000000000000000, -1.000000000000000000 ) ) ;
#95 = EDGE_CURVE ( 'NONE', #195, #138, #104, .T. ) ;
#96 = DIRECTION ( 'NONE',  ( 1.000000000000000000, 0.000000000000000000, 0.000000000000000000 ) ) ;
#97 = FACE_OUTER_BOUND ( 'NONE', #274, .T. ) ;
#98 = CIRCLE ( 'NONE', #216, 0.1900000000000000022 ) ;
#99 = VERTEX_POINT ( 'NONE', #233 ) ;
#100 = DIRECTION ( 'NONE',  ( -0.000000000000000000, -0.000000000000000000, -1.000000000000000000 ) ) ;
#101 = VERTEX_POINT ( 'NONE', #124 ) ;
#102 = SURFACE_STYLE_USAGE ( .BOTH. , #254 ) ;
#103 = SURFACE_SIDE_STYLE ('',( #143 ) ) ;
#104 = CIRCLE ( 'NONE', #270, 0.1900000000000000022 ) ;
#105 = CARTESIAN_POINT ( 'NONE',  ( 0.1833030277982335976, 0.04999999999999994033, -2.160000000000000142 ) ) ;
#106 = AXIS2_PLACEMENT_3D ( 'NONE', #132, #100, #228 ) ;
#107 =( NAMED_UNIT ( * ) PLANE_ANGLE_UNIT ( ) SI_UNIT ( $, .RADIAN. ) );
#108 = VECTOR ( 'NONE', #200, 1000.000000000000000 ) ;
#109 = CARTESIAN_POINT ( 'NONE',  ( 0.1833030277982335976, 0.04999999999999994033, -3.180000000000000160 ) ) ;
#110 = DIRECTION ( 'NONE',  ( 1.000000000000000000, 0.000000000000000000, 0.000000000000000000 ) ) ;
#111 = DIRECTION ( 'NONE',  ( -0.000000000000000000, -0.000000000000000000, 1.000000000000000000 ) ) ;
#112 = AXIS2_PLACEMENT_3D ( 'NONE', #63, #83, #168 ) ;
#113 = ORIENTED_EDGE ( 'NONE', *, *, #21, .T. ) ;
#114 = CARTESIAN_POINT ( 'NONE',  ( 0.1833030277982335976, -0.05000000000000005135, -3.180000000000000160 ) ) ;
#115 = DIRECTION ( 'NONE',  ( 1.000000000000000000, -0.000000000000000000, -0.000000000000000000 ) ) ;
#116 = DIRECTION ( 'NONE',  ( 1.000000000000000000, 0.000000000000000000, -0.000000000000000000 ) ) ;
#117 = ORIENTED_EDGE ( 'NONE', *, *, #217, .F. ) ;
#118 = AXIS2_PLACEMENT_3D ( 'NONE', #204, #75, #116 ) ;
#119 = FACE_OUTER_BOUND ( 'NONE', #130, .T. ) ;
#120 = AXIS2_PLACEMENT_3D ( 'NONE', #163, #6, #15 ) ;
#121 = ORIENTED_EDGE ( 'NONE', *, *, #170, .F. ) ;
#122 = VERTEX_POINT ( 'NONE', #272 ) ;
#123 = ADVANCED_FACE ( 'NONE', ( #218 ), #68, .T. ) ;
#124 = CARTESIAN_POINT ( 'NONE',  ( 0.1833030277982335976, -0.05000000000000005135, -2.160000000000000142 ) ) ;
#125 = PRESENTATION_STYLE_ASSIGNMENT (( #167 ) ) ;
#126 = CIRCLE ( 'NONE', #294, 0.1900000000000000022 ) ;
#127 = DIRECTION ( 'NONE',  ( 0.000000000000000000, 0.000000000000000000, -1.000000000000000000 ) ) ;
#128 = DIRECTION ( 'NONE',  ( 0.000000000000000000, 0.000000000000000000, -1.000000000000000000 ) ) ;
#129 = APPLICATION_CONTEXT ( 'automotive_design' ) ;
#130 = EDGE_LOOP ( 'NONE', ( #180, #250, #245, #258 ) ) ;
#131 =( LENGTH_UNIT ( ) NAMED_UNIT ( * ) SI_UNIT ( .MILLI., .METRE. ) );
#132 = CARTESIAN_POINT ( 'NONE',  ( 0.000000000000000000, 0.000000000000000000, -0.1900000000000000577 ) ) ;
#133 = DIRECTION ( 'NONE',  ( -1.000000000000000000, 0.000000000000000000, 0.000000000000000000 ) ) ;
#134 = PLANE ( 'NONE',  #60 ) ;
#135 = ORIENTED_EDGE ( 'NONE', *, *, #170, .T. ) ;
#136 = CARTESIAN_POINT ( 'NONE',  ( 0.000000000000000000, 0.000000000000000000, -3.180000000000000160 ) ) ;
#137 = CARTESIAN_POINT ( 'NONE',  ( 0.000000000000000000, 0.000000000000000000, -2.160000000000000142 ) ) ;
#138 = VERTEX_POINT ( 'NONE', #302 ) ;
#139 = DIRECTION ( 'NONE',  ( -0.000000000000000000, -0.000000000000000000, 1.000000000000000000 ) ) ;
#140 = DIRECTION ( 'NONE',  ( 1.000000000000000000, 0.000000000000000000, 0.000000000000000000 ) ) ;
#141 = AXIS2_PLACEMENT_3D ( 'NONE', #189, #185, #289 ) ;
#142 = ORIENTED_EDGE ( 'NONE', *, *, #89, .T. ) ;
#143 = SURFACE_STYLE_FILL_AREA ( #296 ) ;
#144 = AXIS2_PLACEMENT_3D ( 'NONE', #52, #84, #164 ) ;
#145 =( LENGTH_UNIT ( ) NAMED_UNIT ( * ) SI_UNIT ( .MILLI., .METRE. ) );
#146 = ORIENTED_EDGE ( 'NONE', *, *, #283, .T. ) ;
#147 = EDGE_CURVE ( 'NONE', #195, #67, #212, .T. ) ;
#148 = APPLICATION_CONTEXT ( 'automotive_design' ) ;
#149 = VECTOR ( 'NONE', #78, 1000.000000000000000 ) ;
#150 = CARTESIAN_POINT ( 'NONE',  ( 0.1900000000000000022, 0.000000000000000000, -2.160000000000000142 ) ) ;
#151 = CARTESIAN_POINT ( 'NONE',  ( 0.000000000000000000, 0.000000000000000000, -0.1900000000000000577 ) ) ;
#152 = DIRECTION ( 'NONE',  ( 0.000000000000000000, 0.000000000000000000, 1.000000000000000000 ) ) ;
#153 = VECTOR ( 'NONE', #51, 1000.000000000000000 ) ;
#154 = VERTEX_POINT ( 'NONE', #243 ) ;
#155 = ORIENTED_EDGE ( 'NONE', *, *, #89, .F. ) ;
#156 = EDGE_LOOP ( 'NONE', ( #1, #234, #188, #146, #165, #121, #34, #40 ) ) ;
#157 = VECTOR ( 'NONE', #197, 1000.000000000000000 ) ;
#158 = DIRECTION ( 'NONE',  ( 0.000000000000000000, 0.000000000000000000, 1.000000000000000000 ) ) ;
#159 = EDGE_LOOP ( 'NONE', ( #9, #12, #281 ) ) ;
#160 = LINE ( 'NONE', #77, #153 ) ;
#161 = LINE ( 'NONE', #297, #149 ) ;
#162 = EDGE_LOOP ( 'NONE', ( #47, #117 ) ) ;
#163 = CARTESIAN_POINT ( 'NONE',  ( 0.000000000000000000, 0.000000000000000000, -3.180000000000000160 ) ) ;
#164 = DIRECTION ( 'NONE',  ( 1.000000000000000000, 0.000000000000000000, 0.000000000000000000 ) ) ;
#165 = ORIENTED_EDGE ( 'NONE', *, *, #65, .F. ) ;
#166 = CIRCLE ( 'NONE', #120, 0.1900000000000000022 ) ;
#167 = SURFACE_STYLE_USAGE ( .BOTH. , #103 ) ;
#168 = DIRECTION ( 'NONE',  ( 1.000000000000000000, 0.000000000000000000, 0.000000000000000000 ) ) ;
#169 = ADVANCED_FACE ( 'NONE', ( #44 ), #269, .T. ) ;
#170 = EDGE_CURVE ( 'NONE', #14, #93, #36, .T. ) ;
#171 = ADVANCED_FACE ( 'NONE', ( #222 ), #28, .F. ) ;
#172 = CARTESIAN_POINT ( 'NONE',  ( 0.1833030277982335976, -0.05000000000000003053, -3.180000000000000160 ) ) ;
#173 = AXIS2_PLACEMENT_3D ( 'NONE', #151, #278, #110 ) ;
#174 = CARTESIAN_POINT ( 'NONE',  ( 0.000000000000000000, 0.000000000000000000, -0.1900000000000000577 ) ) ;
#175 = EDGE_CURVE ( 'NONE', #101, #184, #177, .T. ) ;
#176 = PRODUCT_DEFINITION_SHAPE ( 'NONE', 'NONE',  #263 ) ;
#177 = LINE ( 'NONE', #90, #157 ) ;
#178 =( GEOMETRIC_REPRESENTATION_CONTEXT ( 3 ) GLOBAL_UNCERTAINTY_ASSIGNED_CONTEXT ( ( #287 ) ) GLOBAL_UNIT_ASSIGNED_CONTEXT ( ( #214, #301, #298 ) ) REPRESENTATION_CONTEXT ( 'NONE', 'WORKASPACE' ) );
#179 = UNCERTAINTY_MEASURE_WITH_UNIT (LENGTH_MEASURE( 1.000000000000000082E-05 ), #145, 'distance_accuracy_value', 'NONE');
#180 = ORIENTED_EDGE ( 'NONE', *, *, #175, .T. ) ;
#181 = DIRECTION ( 'NONE',  ( 0.000000000000000000, 0.000000000000000000, 1.000000000000000000 ) ) ;
#182 = ORIENTED_EDGE ( 'NONE', *, *, #22, .T. ) ;
#183 = DIRECTION ( 'NONE',  ( -0.000000000000000000, -0.000000000000000000, 1.000000000000000000 ) ) ;
#184 = VERTEX_POINT ( 'NONE', #273 ) ;
#185 = DIRECTION ( 'NONE',  ( 0.000000000000000000, 0.000000000000000000, 1.000000000000000000 ) ) ;
#186 = VECTOR ( 'NONE', #111, 1000.000000000000000 ) ;
#187 = DIRECTION ( 'NONE',  ( 1.000000000000000000, 0.000000000000000000, 0.000000000000000000 ) ) ;
#188 = ORIENTED_EDGE ( 'NONE', *, *, #230, .T. ) ;
#189 = CARTESIAN_POINT ( 'NONE',  ( 0.000000000000000000, 0.000000000000000000, -2.160000000000000142 ) ) ;
#190 = LINE ( 'NONE', #114, #81 ) ;
#191 = ORIENTED_EDGE ( 'NONE', *, *, #241, .T. ) ;
#192 = EDGE_CURVE ( 'NONE', #14, #195, #87, .T. ) ;
#193 =( NAMED_UNIT ( * ) SI_UNIT ( $, .STERADIAN. ) SOLID_ANGLE_UNIT ( ) );
#194 = VECTOR ( 'NONE', #139, 1000.000000000000000 ) ;
#195 = VERTEX_POINT ( 'NONE', #20 ) ;
#196 = AXIS2_PLACEMENT_3D ( 'NONE', #27, #244, #48 ) ;
#197 = DIRECTION ( 'NONE',  ( -1.000000000000000000, 2.587728397942912500E-16, 0.000000000000000000 ) ) ;
#198 = AXIS2_PLACEMENT_3D ( 'NONE', #256, #240, #33 ) ;
#199 = AXIS2_PLACEMENT_3D ( 'NONE', #136, #94, #133 ) ;
#200 = DIRECTION ( 'NONE',  ( 0.000000000000000000, 0.000000000000000000, 1.000000000000000000 ) ) ;
#201 = CARTESIAN_POINT ( 'NONE',  ( 0.000000000000000000, 0.000000000000000000, -2.160000000000000142 ) ) ;
#202 = AXIS2_PLACEMENT_3D ( 'NONE', #137, #181, #96 ) ;
#203 = FACE_OUTER_BOUND ( 'NONE', #156, .T. ) ;
#204 = CARTESIAN_POINT ( 'NONE',  ( 0.000000000000000000, 0.000000000000000000, -2.160000000000000142 ) ) ;
#205 = FILL_AREA_STYLE ('',( #282 ) ) ;
#206 = DIRECTION ( 'NONE',  ( 0.000000000000000000, 0.000000000000000000, 1.000000000000000000 ) ) ;
#207 = VERTEX_POINT ( 'NONE', #275 ) ;
#208 = DIRECTION ( 'NONE',  ( 0.000000000000000000, 0.000000000000000000, -1.000000000000000000 ) ) ;
#209 = ORIENTED_EDGE ( 'NONE', *, *, #257, .T. ) ;
#210 = EDGE_LOOP ( 'NONE', ( #284, #209, #291 ) ) ;
#211 = ORIENTED_EDGE ( 'NONE', *, *, #221, .T. ) ;
#212 = CIRCLE ( 'NONE', #45, 0.1900000000000000022 ) ;
#213 = DIRECTION ( 'NONE',  ( -0.000000000000000000, -0.000000000000000000, 1.000000000000000000 ) ) ;
#214 =( LENGTH_UNIT ( ) NAMED_UNIT ( * ) SI_UNIT ( .MILLI., .METRE. ) );
#215 = VECTOR ( 'NONE', #213, 1000.000000000000000 ) ;
#216 = AXIS2_PLACEMENT_3D ( 'NONE', #201, #152, #66 ) ;
#217 = EDGE_CURVE ( 'NONE', #3, #99, #98, .T. ) ;
#218 = FACE_OUTER_BOUND ( 'NONE', #159, .T. ) ;
#219 = EDGE_CURVE ( 'NONE', #207, #138, #160, .T. ) ;
#220 = DIRECTION ( 'NONE',  ( -1.000000000000000000, 0.000000000000000000, 0.000000000000000000 ) ) ;
#221 = EDGE_CURVE ( 'NONE', #122, #14, #166, .T. ) ;
#222 = FACE_OUTER_BOUND ( 'NONE', #38, .T. ) ;
#223 = MECHANICAL_DESIGN_GEOMETRIC_PRESENTATION_REPRESENTATION (  '', ( #242 ), #37 ) ;
#224 = EDGE_CURVE ( 'NONE', #154, #207, #299, .T. ) ;
#225 = SPHERICAL_SURFACE ( 'NONE', #144, 0.1900000000000000022 ) ;
#226 = ORIENTED_EDGE ( 'NONE', *, *, #255, .F. ) ;
#227 = CARTESIAN_POINT ( 'NONE',  ( -0.1833030277982335976, -0.04999999999999995420, -3.180000000000000160 ) ) ;
#228 = DIRECTION ( 'NONE',  ( 1.000000000000000000, 0.000000000000000000, 0.000000000000000000 ) ) ;
#229 = ORIENTED_EDGE ( 'NONE', *, *, #295, .F. ) ;
#230 = EDGE_CURVE ( 'NONE', #154, #184, #292, .T. ) ;
#231 = CARTESIAN_POINT ( 'NONE',  ( 0.000000000000000000, 0.000000000000000000, -2.160000000000000142 ) ) ;
#232 = ORIENTED_EDGE ( 'NONE', *, *, #224, .T. ) ;
#233 = CARTESIAN_POINT ( 'NONE',  ( -0.1833030277982336254, 0.04999999999999994033, -2.160000000000000142 ) ) ;
#234 = ORIENTED_EDGE ( 'NONE', *, *, #224, .F. ) ;
#235 = LINE ( 'NONE', #279, #194 ) ;
#236 = ADVANCED_BREP_SHAPE_REPRESENTATION ( 'FM1016-7', ( #259, #112 ), #238 ) ;
#237 = VECTOR ( 'NONE', #183, 1000.000000000000000 ) ;
#238 =( GEOMETRIC_REPRESENTATION_CONTEXT ( 3 ) GLOBAL_UNCERTAINTY_ASSIGNED_CONTEXT ( ( #179 ) ) GLOBAL_UNIT_ASSIGNED_CONTEXT ( ( #145, #107, #193 ) ) REPRESENTATION_CONTEXT ( 'NONE', 'WORKASPACE' ) );
#239 = FILL_AREA_STYLE_COLOUR ( '', #82 ) ;
#240 = DIRECTION ( 'NONE',  ( 2.587728397942912500E-16, 1.000000000000000000, 0.000000000000000000 ) ) ;
#241 = EDGE_CURVE ( 'NONE', #99, #3, #251, .T. ) ;
#242 = STYLED_ITEM ( 'NONE', ( #10 ), #259 ) ;
#243 = CARTESIAN_POINT ( 'NONE',  ( -0.1833030277982335976, -0.04999999999999995420, -3.180000000000000160 ) ) ;
#244 = DIRECTION ( 'NONE',  ( 0.000000000000000000, 0.000000000000000000, -1.000000000000000000 ) ) ;
#245 = ORIENTED_EDGE ( 'NONE', *, *, #85, .F. ) ;
#246 = DIRECTION ( 'NONE',  ( 0.000000000000000000, -1.000000000000000000, 0.000000000000000000 ) ) ;
#247 = SURFACE_STYLE_FILL_AREA ( #205 ) ;
#248 = ORIENTED_EDGE ( 'NONE', *, *, #175, .F. ) ;
#249 = AXIS2_PLACEMENT_3D ( 'NONE', #286, #208, #39 ) ;
#250 = ORIENTED_EDGE ( 'NONE', *, *, #230, .F. ) ;
#251 = LINE ( 'NONE', #32, #267 ) ;
#252 = FACE_OUTER_BOUND ( 'NONE', #210, .T. ) ;
#253 = EDGE_LOOP ( 'NONE', ( #232, #55, #142, #211, #135, #46 ) ) ;
#254 = SURFACE_SIDE_STYLE ('',( #247 ) ) ;
#255 = EDGE_CURVE ( 'NONE', #76, #99, #235, .T. ) ;
#256 = CARTESIAN_POINT ( 'NONE',  ( 0.1833030277982335976, -0.05000000000000005135, -3.180000000000000160 ) ) ;
#257 = EDGE_CURVE ( 'NONE', #138, #67, #126, .T. ) ;
#258 = ORIENTED_EDGE ( 'NONE', *, *, #65, .T. ) ;
#259 = MANIFOLD_SOLID_BREP ( 'Fillet1', #16 ) ;
#260 = CARTESIAN_POINT ( 'NONE',  ( 0.000000000000000000, 0.000000000000000000, -0.1900000000000000577 ) ) ;
#261 = ORIENTED_EDGE ( 'NONE', *, *, #192, .F. ) ;
#262 = STYLED_ITEM ( 'NONE', ( #125 ), #236 ) ;
#263 = PRODUCT_DEFINITION ( 'UNKNOWN', '', #30, #300 ) ;
#264 = APPLICATION_PROTOCOL_DEFINITION ( 'draft international standard', 'automotive_design', 1998, #129 ) ;
#265 = CIRCLE ( 'NONE', #106, 0.1900000000000000022 ) ;
#266 = CYLINDRICAL_SURFACE ( 'NONE', #24, 0.1900000000000000022 ) ;
#267 = VECTOR ( 'NONE', #115, 1000.000000000000000 ) ;
#268 = APPLICATION_PROTOCOL_DEFINITION ( 'draft international standard', 'automotive_design', 1998, #148 ) ;
#269 = PLANE ( 'NONE',  #196 ) ;
#270 = AXIS2_PLACEMENT_3D ( 'NONE', #260, #56, #140 ) ;
#271 = PRODUCT ( 'FM1016-7', 'FM1016-7', '', ( #58 ) ) ;
#272 = CARTESIAN_POINT ( 'NONE',  ( 0.1833030277982335976, 0.04999999999999994033, -3.180000000000000160 ) ) ;
#273 = CARTESIAN_POINT ( 'NONE',  ( -0.1833030277982335976, -0.04999999999999995420, -2.160000000000000142 ) ) ;
#274 = EDGE_LOOP ( 'NONE', ( #229, #288, #182, #261, #50, #113, #57, #226 ) ) ;
#275 = CARTESIAN_POINT ( 'NONE',  ( -0.1900000000000000022, 2.326828918379971180E-17, -3.180000000000000160 ) ) ;
#276 = AXIS2_PLACEMENT_3D ( 'NONE', #43, #128, #220 ) ;
#277 = AXIS2_PLACEMENT_3D ( 'NONE', #109, #23, #29 ) ;
#278 = DIRECTION ( 'NONE',  ( 0.000000000000000000, 1.000000000000000000, 0.000000000000000000 ) ) ;
#279 = CARTESIAN_POINT ( 'NONE',  ( -0.1833030277982335976, 0.04999999999999994033, -3.180000000000000160 ) ) ;
#280 = CARTESIAN_POINT ( 'NONE',  ( 0.1833030277982335976, 0.04999999999999994033, -3.180000000000000160 ) ) ;
#281 = ORIENTED_EDGE ( 'NONE', *, *, #147, .T. ) ;
#282 = FILL_AREA_STYLE_COLOUR ( '', #42 ) ;
#283 = EDGE_CURVE ( 'NONE', #184, #101, #2, .T. ) ;
#284 = ORIENTED_EDGE ( 'NONE', *, *, #22, .F. ) ;
#285 = MECHANICAL_DESIGN_GEOMETRIC_PRESENTATION_REPRESENTATION (  '', ( #262 ), #178 ) ;
#286 = CARTESIAN_POINT ( 'NONE',  ( 0.000000000000000000, 0.000000000000000000, -3.180000000000000160 ) ) ;
#287 = UNCERTAINTY_MEASURE_WITH_UNIT (LENGTH_MEASURE( 1.000000000000000082E-05 ), #214, 'distance_accuracy_value', 'NONE');
#288 = ORIENTED_EDGE ( 'NONE', *, *, #219, .T. ) ;
#289 = DIRECTION ( 'NONE',  ( 1.000000000000000000, 0.000000000000000000, 0.000000000000000000 ) ) ;
#290 = CARTESIAN_POINT ( 'NONE',  ( 0.000000000000000000, 0.000000000000000000, -2.160000000000000142 ) ) ;
#291 = ORIENTED_EDGE ( 'NONE', *, *, #147, .F. ) ;
#292 = LINE ( 'NONE', #227, #186 ) ;
#293 = SHAPE_DEFINITION_REPRESENTATION ( #176, #236 ) ;
#294 = AXIS2_PLACEMENT_3D ( 'NONE', #4, #91, #80 ) ;
#295 = EDGE_CURVE ( 'NONE', #207, #76, #61, .T. ) ;
#296 = FILL_AREA_STYLE ('',( #239 ) ) ;
#297 = CARTESIAN_POINT ( 'NONE',  ( 0.1833030277982335976, 0.04999999999999994033, -3.180000000000000160 ) ) ;
#298 =( NAMED_UNIT ( * ) SI_UNIT ( $, .STERADIAN. ) SOLID_ANGLE_UNIT ( ) );
#299 = CIRCLE ( 'NONE', #199, 0.1900000000000000022 ) ;
#300 = PRODUCT_DEFINITION_CONTEXT ( 'detailed design', #148, 'design' ) ;
#301 =( NAMED_UNIT ( * ) PLANE_ANGLE_UNIT ( ) SI_UNIT ( $, .RADIAN. ) );
#302 = CARTESIAN_POINT ( 'NONE',  ( -0.1900000000000000022, 2.326828918379971180E-17, -0.1900000000000000577 ) ) ;
ENDSEC;
END-ISO-10303-21;
