ISO-10303-21;
HEADER;
FILE_DESCRIPTION (( 'STEP AP214' ),
    '1' );
FILE_NAME ('FMW112GG01_3D.step',
    '2024-09-23T17:01:39',
    ( '' ),
    ( '' ),
    'SwSTEP 2.0',
    'SolidWorks 2022',
    '' );
FILE_SCHEMA (( 'AUTOMOTIVE_DESIGN' ));
ENDSEC;

DATA;
#1 = UNCERTAINTY_MEASURE_WITH_UNIT (LENGTH_MEASURE( 1.000000000000000082E-05 ), #83, 'distance_accuracy_value', 'NONE');
#2 = VERTEX_POINT ( 'NONE', #56 ) ;
#3 = APPLICATION_CONTEXT ( 'automotive_design' ) ;
#4 = DIRECTION ( 'NONE',  ( 1.000000000000000000, 0.000000000000000000, 0.000000000000000000 ) ) ;
#5 = SURFACE_STYLE_USAGE ( .BOTH. , #96 ) ;
#6 = APPLICATION_CONTEXT ( 'automotive_design' ) ;
#7 =( NAMED_UNIT ( * ) PLANE_ANGLE_UNIT ( ) SI_UNIT ( $, .RADIAN. ) );
#8 = VERTEX_POINT ( 'NONE', #9 ) ;
#9 = CARTESIAN_POINT ( 'NONE',  ( 0.8897637795275590289, 0.000000000000000000, 0.000000000000000000 ) ) ;
#10 = AXIS2_PLACEMENT_3D ( 'NONE', #14, #25, #76 ) ;
#11 = CARTESIAN_POINT ( 'NONE',  ( 0.8385826771653542844, 0.000000000000000000, 0.000000000000000000 ) ) ;
#12 =( GEOMETRIC_REPRESENTATION_CONTEXT ( 3 ) GLOBAL_UNCERTAINTY_ASSIGNED_CONTEXT ( ( #23 ) ) GLOBAL_UNIT_ASSIGNED_CONTEXT ( ( #68, #64, #103 ) ) REPRESENTATION_CONTEXT ( 'NONE', 'WORKASPACE' ) );
#13 = ADVANCED_FACE ( 'NONE', ( #57 ), #61, .T. ) ;
#14 = CARTESIAN_POINT ( 'NONE',  ( 0.000000000000000000, 0.000000000000000000, 0.000000000000000000 ) ) ;
#15 = CIRCLE ( 'NONE', #74, 0.05118110236220468900 ) ;
#16 =( NAMED_UNIT ( * ) PLANE_ANGLE_UNIT ( ) SI_UNIT ( $, .RADIAN. ) );
#17 = CARTESIAN_POINT ( 'NONE',  ( 0.8385826771653542844, 0.000000000000000000, 0.000000000000000000 ) ) ;
#18 = ORIENTED_EDGE ( 'NONE', *, *, #130, .T. ) ;
#19 = AXIS2_PLACEMENT_3D ( 'NONE', #53, #40, #98 ) ;
#20 = ORIENTED_EDGE ( 'NONE', *, *, #101, .T. ) ;
#21 = DIRECTION ( 'NONE',  ( 1.000000000000000000, 0.000000000000000000, 0.000000000000000000 ) ) ;
#22 = CIRCLE ( 'NONE', #49, 0.05118110236220464737 ) ;
#23 = UNCERTAINTY_MEASURE_WITH_UNIT (LENGTH_MEASURE( 1.000000000000000082E-05 ), #68, 'distance_accuracy_value', 'NONE');
#24 = STYLED_ITEM ( 'NONE', ( #42 ), #89 ) ;
#25 = DIRECTION ( 'NONE',  ( 0.000000000000000000, 0.000000000000000000, 1.000000000000000000 ) ) ;
#26 = PRODUCT_DEFINITION ( 'UNKNOWN', '', #113, #71 ) ;
#27 = TOROIDAL_SURFACE ( 'NONE', #128, 0.8385826771653542844, 0.05118110236220464737 ) ;
#28 = PRESENTATION_STYLE_ASSIGNMENT (( #5 ) ) ;
#29 =( LENGTH_UNIT ( ) NAMED_UNIT ( * ) SI_UNIT ( $, .METRE. ) );
#30 = LENGTH_MEASURE_WITH_UNIT ( LENGTH_MEASURE( 0.02539999999999999897 ), #124 );
#31 = CARTESIAN_POINT ( 'NONE',  ( -0.7874015748031496509, 9.642888182262624280E-17, -6.267877318470690190E-18 ) ) ;
#32 = ORIENTED_EDGE ( 'NONE', *, *, #79, .F. ) ;
#33 = FACE_OUTER_BOUND ( 'NONE', #108, .T. ) ;
#34 = AXIS2_PLACEMENT_3D ( 'NONE', #86, #39, #144 ) ;
#35 = ORIENTED_EDGE ( 'NONE', *, *, #137, .T. ) ;
#36 = DIRECTION ( 'NONE',  ( 1.000000000000000000, 0.000000000000000000, 0.000000000000000000 ) ) ;
#37 = FACE_OUTER_BOUND ( 'NONE', #72, .T. ) ;
#38 = CARTESIAN_POINT ( 'NONE',  ( 0.000000000000000000, 0.000000000000000000, 0.000000000000000000 ) ) ;
#39 = DIRECTION ( 'NONE',  ( 0.000000000000000000, 0.000000000000000000, 1.000000000000000000 ) ) ;
#40 = DIRECTION ( 'NONE',  ( 0.000000000000000000, 0.000000000000000000, 1.000000000000000000 ) ) ;
#41 = PRODUCT ( 'FMW112GG01_3D', 'FMW112GG01_3D', '', ( #129 ) ) ;
#42 = PRESENTATION_STYLE_ASSIGNMENT (( #150 ) ) ;
#43 = EDGE_LOOP ( 'NONE', ( #149, #18, #148, #154 ) ) ;
#44 = VERTEX_POINT ( 'NONE', #31 ) ;
#45 = AXIS2_PLACEMENT_3D ( 'NONE', #78, #111, #134 ) ;
#46 = SHAPE_DEFINITION_REPRESENTATION ( #131, #89 ) ;
#47 = FILL_AREA_STYLE_COLOUR ( '', #60 ) ;
#48 = DIRECTION ( 'NONE',  ( 0.000000000000000000, 0.000000000000000000, 1.000000000000000000 ) ) ;
#49 = AXIS2_PLACEMENT_3D ( 'NONE', #17, #65, #52 ) ;
#50 = ORIENTED_EDGE ( 'NONE', *, *, #93, .T. ) ;
#51 = CARTESIAN_POINT ( 'NONE',  ( -0.8385826771653542844, 1.026967591410969499E-16, 0.000000000000000000 ) ) ;
#52 = DIRECTION ( 'NONE',  ( 0.000000000000000000, 0.000000000000000000, -1.000000000000000000 ) ) ;
#53 = CARTESIAN_POINT ( 'NONE',  ( 0.000000000000000000, 0.000000000000000000, 0.000000000000000000 ) ) ;
#54 =( CONVERSION_BASED_UNIT ( 'INCH', #82 ) LENGTH_UNIT ( ) NAMED_UNIT ( #147 ) );
#55 = CIRCLE ( 'NONE', #69, 0.05118110236220464737 ) ;
#56 = CARTESIAN_POINT ( 'NONE',  ( 0.7874015748031496509, 0.000000000000000000, -6.267877318470690190E-18 ) ) ;
#57 = FACE_OUTER_BOUND ( 'NONE', #43, .T. ) ;
#58 = TOROIDAL_SURFACE ( 'NONE', #45, 0.8385826771653542844, 0.05118110236220464737 ) ;
#59 = DIRECTION ( 'NONE',  ( 0.000000000000000000, -1.000000000000000000, 0.000000000000000000 ) ) ;
#60 = COLOUR_RGB ( '',1.000000000000000000, 1.000000000000000000, 1.000000000000000000 ) ;
#61 = TOROIDAL_SURFACE ( 'NONE', #81, 0.8385826771653542844, 0.05118110236220464737 ) ;
#62 = PRODUCT_RELATED_PRODUCT_CATEGORY ( 'part', '', ( #41 ) ) ;
#63 = ORIENTED_EDGE ( 'NONE', *, *, #110, .T. ) ;
#64 =( NAMED_UNIT ( * ) PLANE_ANGLE_UNIT ( ) SI_UNIT ( $, .RADIAN. ) );
#65 = DIRECTION ( 'NONE',  ( 0.000000000000000000, -1.000000000000000000, 0.000000000000000000 ) ) ;
#66 = EDGE_LOOP ( 'NONE', ( #116, #138, #50, #32 ) ) ;
#67 = CIRCLE ( 'NONE', #95, 0.7874015748031496509 ) ;
#68 =( CONVERSION_BASED_UNIT ( 'INCH', #75 ) LENGTH_UNIT ( ) NAMED_UNIT ( #133 ) );
#69 = AXIS2_PLACEMENT_3D ( 'NONE', #11, #59, #118 ) ;
#70 = ORIENTED_EDGE ( 'NONE', *, *, #130, .F. ) ;
#71 = PRODUCT_DEFINITION_CONTEXT ( 'detailed design', #3, 'design' ) ;
#72 = EDGE_LOOP ( 'NONE', ( #70, #107, #63, #20 ) ) ;
#73 = SURFACE_STYLE_FILL_AREA ( #102 ) ;
#74 = AXIS2_PLACEMENT_3D ( 'NONE', #142, #143, #121 ) ;
#75 = LENGTH_MEASURE_WITH_UNIT ( LENGTH_MEASURE( 0.02539999999999999897 ), #139 );
#76 = DIRECTION ( 'NONE',  ( 1.000000000000000000, 0.000000000000000000, 0.000000000000000000 ) ) ;
#77 = DIRECTION ( 'NONE',  ( 0.000000000000000000, 0.000000000000000000, 1.000000000000000000 ) ) ;
#78 = CARTESIAN_POINT ( 'NONE',  ( 0.000000000000000000, 0.000000000000000000, 0.000000000000000000 ) ) ;
#79 = EDGE_CURVE ( 'NONE', #44, #2, #160, .T. ) ;
#80 = CIRCLE ( 'NONE', #10, 0.8897637795275590289 ) ;
#81 = AXIS2_PLACEMENT_3D ( 'NONE', #99, #115, #84 ) ;
#82 = LENGTH_MEASURE_WITH_UNIT ( LENGTH_MEASURE( 0.02539999999999999897 ), #29 );
#83 =( CONVERSION_BASED_UNIT ( 'INCH', #30 ) LENGTH_UNIT ( ) NAMED_UNIT ( #158 ) );
#84 = DIRECTION ( 'NONE',  ( 1.000000000000000000, 0.000000000000000000, 0.000000000000000000 ) ) ;
#85 = MANIFOLD_SOLID_BREP ( 'Sweep1', #105 ) ;
#86 = CARTESIAN_POINT ( 'NONE',  ( 0.000000000000000000, 0.000000000000000000, -6.267877318470695582E-18 ) ) ;
#87 = CARTESIAN_POINT ( 'NONE',  ( 0.000000000000000000, 0.000000000000000000, 0.000000000000000000 ) ) ;
#88 = APPLICATION_PROTOCOL_DEFINITION ( 'draft international standard', 'automotive_design', 1998, #3 ) ;
#89 = ADVANCED_BREP_SHAPE_REPRESENTATION ( 'FMW112GG01_3D', ( #85, #19 ), #136 ) ;
#90 = COLOUR_RGB ( '',1.000000000000000000, 1.000000000000000000, 1.000000000000000000 ) ;
#91 = CARTESIAN_POINT ( 'NONE',  ( 0.000000000000000000, 0.000000000000000000, -6.267877318470695582E-18 ) ) ;
#92 = PRESENTATION_LAYER_ASSIGNMENT (  '', '', ( #24 ) ) ;
#93 = EDGE_CURVE ( 'NONE', #8, #2, #22, .T. ) ;
#94 = SURFACE_STYLE_FILL_AREA ( #112 ) ;
#95 = AXIS2_PLACEMENT_3D ( 'NONE', #91, #156, #4 ) ;
#96 = SURFACE_SIDE_STYLE ('',( #94 ) ) ;
#97 = ORIENTED_EDGE ( 'NONE', *, *, #145, .F. ) ;
#98 = DIRECTION ( 'NONE',  ( 1.000000000000000000, 0.000000000000000000, 0.000000000000000000 ) ) ;
#99 = CARTESIAN_POINT ( 'NONE',  ( 0.000000000000000000, 0.000000000000000000, 0.000000000000000000 ) ) ;
#100 = PRESENTATION_LAYER_ASSIGNMENT (  '', '', ( #153 ) ) ;
#101 = EDGE_CURVE ( 'NONE', #44, #163, #15, .T. ) ;
#102 = FILL_AREA_STYLE ('',( #47 ) ) ;
#103 =( NAMED_UNIT ( * ) SI_UNIT ( $, .STERADIAN. ) SOLID_ANGLE_UNIT ( ) );
#104 = CIRCLE ( 'NONE', #152, 0.8897637795275590289 ) ;
#105 = CLOSED_SHELL ( 'NONE', ( #127, #13, #119, #132 ) ) ;
#106 = EDGE_CURVE ( 'NONE', #163, #44, #117, .T. ) ;
#107 = ORIENTED_EDGE ( 'NONE', *, *, #137, .F. ) ;
#108 = EDGE_LOOP ( 'NONE', ( #97, #164, #126, #35 ) ) ;
#109 = DIRECTION ( 'NONE',  ( -1.000000000000000000, 1.224646799147351975E-16, 0.000000000000000000 ) ) ;
#110 = EDGE_CURVE ( 'NONE', #2, #44, #67, .T. ) ;
#111 = DIRECTION ( 'NONE',  ( 0.000000000000000000, 0.000000000000000000, 1.000000000000000000 ) ) ;
#112 = FILL_AREA_STYLE ('',( #123 ) ) ;
#113 = PRODUCT_DEFINITION_FORMATION_WITH_SPECIFIED_SOURCE ( 'ANY', '', #41, .NOT_KNOWN. ) ;
#114 = APPLICATION_PROTOCOL_DEFINITION ( 'draft international standard', 'automotive_design', 1998, #6 ) ;
#115 = DIRECTION ( 'NONE',  ( 0.000000000000000000, 0.000000000000000000, 1.000000000000000000 ) ) ;
#116 = ORIENTED_EDGE ( 'NONE', *, *, #106, .F. ) ;
#117 = CIRCLE ( 'NONE', #122, 0.05118110236220468900 ) ;
#118 = DIRECTION ( 'NONE',  ( 0.000000000000000000, 0.000000000000000000, -1.000000000000000000 ) ) ;
#119 = ADVANCED_FACE ( 'NONE', ( #37 ), #58, .T. ) ;
#120 = DIRECTION ( 'NONE',  ( 1.224646799147353207E-16, 1.000000000000000000, -0.000000000000000000 ) ) ;
#121 = DIRECTION ( 'NONE',  ( -1.000000000000000000, 1.224646799147351975E-16, 0.000000000000000000 ) ) ;
#122 = AXIS2_PLACEMENT_3D ( 'NONE', #51, #120, #109 ) ;
#123 = FILL_AREA_STYLE_COLOUR ( '', #90 ) ;
#124 =( LENGTH_UNIT ( ) NAMED_UNIT ( * ) SI_UNIT ( $, .METRE. ) );
#125 = MECHANICAL_DESIGN_GEOMETRIC_PRESENTATION_REPRESENTATION (  '', ( #24 ), #12 ) ;
#126 = ORIENTED_EDGE ( 'NONE', *, *, #79, .T. ) ;
#127 = ADVANCED_FACE ( 'NONE', ( #157 ), #141, .T. ) ;
#128 = AXIS2_PLACEMENT_3D ( 'NONE', #87, #140, #21 ) ;
#129 = PRODUCT_CONTEXT ( 'NONE', #6, 'mechanical' ) ;
#130 = EDGE_CURVE ( 'NONE', #8, #163, #80, .T. ) ;
#131 = PRODUCT_DEFINITION_SHAPE ( 'NONE', 'NONE',  #26 ) ;
#132 = ADVANCED_FACE ( 'NONE', ( #33 ), #27, .T. ) ;
#133 = DIMENSIONAL_EXPONENTS ( 1.000000000000000000, 0.000000000000000000, 0.000000000000000000, 0.000000000000000000, 0.000000000000000000, 0.000000000000000000, 0.000000000000000000 ) ;
#134 = DIRECTION ( 'NONE',  ( 1.000000000000000000, 0.000000000000000000, 0.000000000000000000 ) ) ;
#135 =( GEOMETRIC_REPRESENTATION_CONTEXT ( 3 ) GLOBAL_UNCERTAINTY_ASSIGNED_CONTEXT ( ( #155 ) ) GLOBAL_UNIT_ASSIGNED_CONTEXT ( ( #54, #16, #159 ) ) REPRESENTATION_CONTEXT ( 'NONE', 'WORKASPACE' ) );
#136 =( GEOMETRIC_REPRESENTATION_CONTEXT ( 3 ) GLOBAL_UNCERTAINTY_ASSIGNED_CONTEXT ( ( #1 ) ) GLOBAL_UNIT_ASSIGNED_CONTEXT ( ( #83, #7, #166 ) ) REPRESENTATION_CONTEXT ( 'NONE', 'WORKASPACE' ) );
#137 = EDGE_CURVE ( 'NONE', #2, #8, #55, .T. ) ;
#138 = ORIENTED_EDGE ( 'NONE', *, *, #145, .T. ) ;
#139 =( LENGTH_UNIT ( ) NAMED_UNIT ( * ) SI_UNIT ( $, .METRE. ) );
#140 = DIRECTION ( 'NONE',  ( 0.000000000000000000, 0.000000000000000000, 1.000000000000000000 ) ) ;
#141 = TOROIDAL_SURFACE ( 'NONE', #165, 0.8385826771653542844, 0.05118110236220464737 ) ;
#142 = CARTESIAN_POINT ( 'NONE',  ( -0.8385826771653542844, 1.026967591410969499E-16, 0.000000000000000000 ) ) ;
#143 = DIRECTION ( 'NONE',  ( 1.224646799147353207E-16, 1.000000000000000000, -0.000000000000000000 ) ) ;
#144 = DIRECTION ( 'NONE',  ( 1.000000000000000000, 0.000000000000000000, 0.000000000000000000 ) ) ;
#145 = EDGE_CURVE ( 'NONE', #163, #8, #104, .T. ) ;
#146 = MECHANICAL_DESIGN_GEOMETRIC_PRESENTATION_REPRESENTATION (  '', ( #153 ), #135 ) ;
#147 = DIMENSIONAL_EXPONENTS ( 1.000000000000000000, 0.000000000000000000, 0.000000000000000000, 0.000000000000000000, 0.000000000000000000, 0.000000000000000000, 0.000000000000000000 ) ;
#148 = ORIENTED_EDGE ( 'NONE', *, *, #106, .T. ) ;
#149 = ORIENTED_EDGE ( 'NONE', *, *, #93, .F. ) ;
#150 = SURFACE_STYLE_USAGE ( .BOTH. , #162 ) ;
#151 = DIRECTION ( 'NONE',  ( 1.000000000000000000, 0.000000000000000000, 0.000000000000000000 ) ) ;
#152 = AXIS2_PLACEMENT_3D ( 'NONE', #167, #48, #151 ) ;
#153 = STYLED_ITEM ( 'NONE', ( #28 ), #85 ) ;
#154 = ORIENTED_EDGE ( 'NONE', *, *, #110, .F. ) ;
#155 = UNCERTAINTY_MEASURE_WITH_UNIT (LENGTH_MEASURE( 1.000000000000000082E-05 ), #54, 'distance_accuracy_value', 'NONE');
#156 = DIRECTION ( 'NONE',  ( 0.000000000000000000, 0.000000000000000000, 1.000000000000000000 ) ) ;
#157 = FACE_OUTER_BOUND ( 'NONE', #66, .T. ) ;
#158 = DIMENSIONAL_EXPONENTS ( 1.000000000000000000, 0.000000000000000000, 0.000000000000000000, 0.000000000000000000, 0.000000000000000000, 0.000000000000000000, 0.000000000000000000 ) ;
#159 =( NAMED_UNIT ( * ) SI_UNIT ( $, .STERADIAN. ) SOLID_ANGLE_UNIT ( ) );
#160 = CIRCLE ( 'NONE', #34, 0.7874015748031496509 ) ;
#161 = CARTESIAN_POINT ( 'NONE',  ( -0.8897637795275590289, 1.089646364595676448E-16, 0.000000000000000000 ) ) ;
#162 = SURFACE_SIDE_STYLE ('',( #73 ) ) ;
#163 = VERTEX_POINT ( 'NONE', #161 ) ;
#164 = ORIENTED_EDGE ( 'NONE', *, *, #101, .F. ) ;
#165 = AXIS2_PLACEMENT_3D ( 'NONE', #38, #77, #36 ) ;
#166 =( NAMED_UNIT ( * ) SI_UNIT ( $, .STERADIAN. ) SOLID_ANGLE_UNIT ( ) );
#167 = CARTESIAN_POINT ( 'NONE',  ( 0.000000000000000000, 0.000000000000000000, 0.000000000000000000 ) ) ;
ENDSEC;
END-ISO-10303-21;
