ISO-10303-21;
HEADER;
FILE_DESCRIPTION (( 'STEP AP214' ),
    '1' );
FILE_NAME ('FMW28GG01_3D.step',
    '2024-09-23T17:01:57',
    ( '' ),
    ( '' ),
    'SwSTEP 2.0',
    'SolidWorks 2022',
    '' );
FILE_SCHEMA (( 'AUTOMOTIVE_DESIGN' ));
ENDSEC;

DATA;
#1 = STYLED_ITEM ( 'NONE', ( #117 ), #6 ) ;
#2 = UNCERTAINTY_MEASURE_WITH_UNIT (LENGTH_MEASURE( 1.000000000000000082E-05 ), #38, 'distance_accuracy_value', 'NONE');
#3 = AXIS2_PLACEMENT_3D ( 'NONE', #102, #137, #168 ) ;
#4 = DIRECTION ( 'NONE',  ( 1.000000000000000000, 0.000000000000000000, 0.000000000000000000 ) ) ;
#5 = ORIENTED_EDGE ( 'NONE', *, *, #135, .T. ) ;
#6 = ADVANCED_FACE ( 'NONE', ( #160 ), #151, .T. ) ;
#7 = DIRECTION ( 'NONE',  ( 0.000000000000000000, 0.000000000000000000, 1.000000000000000000 ) ) ;
#8 = SURFACE_STYLE_FILL_AREA ( #183 ) ;
#9 =( NAMED_UNIT ( * ) SI_UNIT ( $, .STERADIAN. ) SOLID_ANGLE_UNIT ( ) );
#10 =( GEOMETRIC_REPRESENTATION_CONTEXT ( 3 ) GLOBAL_UNCERTAINTY_ASSIGNED_CONTEXT ( ( #105 ) ) GLOBAL_UNIT_ASSIGNED_CONTEXT ( ( #123, #229, #9 ) ) REPRESENTATION_CONTEXT ( 'NONE', 'WORKASPACE' ) );
#11 =( LENGTH_UNIT ( ) NAMED_UNIT ( * ) SI_UNIT ( $, .METRE. ) );
#12 = EDGE_LOOP ( 'NONE', ( #150, #82, #42, #201 ) ) ;
#13 = AXIS2_PLACEMENT_3D ( 'NONE', #189, #139, #109 ) ;
#14 = DIRECTION ( 'NONE',  ( 1.000000000000000000, 0.000000000000000000, 0.000000000000000000 ) ) ;
#15 =( NAMED_UNIT ( * ) SI_UNIT ( $, .STERADIAN. ) SOLID_ANGLE_UNIT ( ) );
#16 = ADVANCED_FACE ( 'NONE', ( #50 ), #98, .T. ) ;
#17 = MECHANICAL_DESIGN_GEOMETRIC_PRESENTATION_REPRESENTATION (  '', ( #1 ), #144 ) ;
#18 =( GEOMETRIC_REPRESENTATION_CONTEXT ( 3 ) GLOBAL_UNCERTAINTY_ASSIGNED_CONTEXT ( ( #2 ) ) GLOBAL_UNIT_ASSIGNED_CONTEXT ( ( #38, #95, #23 ) ) REPRESENTATION_CONTEXT ( 'NONE', 'WORKASPACE' ) );
#19 =( NAMED_UNIT ( * ) SI_UNIT ( $, .STERADIAN. ) SOLID_ANGLE_UNIT ( ) );
#20 = FILL_AREA_STYLE ('',( #122 ) ) ;
#21 =( GEOMETRIC_REPRESENTATION_CONTEXT ( 3 ) GLOBAL_UNCERTAINTY_ASSIGNED_CONTEXT ( ( #58 ) ) GLOBAL_UNIT_ASSIGNED_CONTEXT ( ( #219, #161, #181 ) ) REPRESENTATION_CONTEXT ( 'NONE', 'WORKASPACE' ) );
#22 = EDGE_LOOP ( 'NONE', ( #53, #35, #164, #73 ) ) ;
#23 =( NAMED_UNIT ( * ) SI_UNIT ( $, .STERADIAN. ) SOLID_ANGLE_UNIT ( ) );
#24 = DIRECTION ( 'NONE',  ( 1.000000000000000000, 0.000000000000000000, 0.000000000000000000 ) ) ;
#25 = CARTESIAN_POINT ( 'NONE',  ( -0.2066929133858267931, 2.531258147843939397E-17, -4.339299682018176828E-18 ) ) ;
#26 = DIRECTION ( 'NONE',  ( 1.224646799147353207E-16, 1.000000000000000000, -0.000000000000000000 ) ) ;
#27 = PRESENTATION_LAYER_ASSIGNMENT (  '', '', ( #202 ) ) ;
#28 = CARTESIAN_POINT ( 'NONE',  ( 0.2066929133858267931, 0.000000000000000000, -4.339299682018176828E-18 ) ) ;
#29 = SURFACE_STYLE_USAGE ( .BOTH. , #211 ) ;
#30 = PRODUCT_DEFINITION_SHAPE ( 'NONE', 'NONE',  #178 ) ;
#31 = COLOUR_RGB ( '',1.000000000000000000, 1.000000000000000000, 1.000000000000000000 ) ;
#32 = FILL_AREA_STYLE ('',( #198 ) ) ;
#33 = TOROIDAL_SURFACE ( 'NONE', #118, 0.2421259842519685179, 0.03543307086614171098 ) ;
#34 = FILL_AREA_STYLE_COLOUR ( '', #196 ) ;
#35 = ORIENTED_EDGE ( 'NONE', *, *, #104, .T. ) ;
#36 = COLOUR_RGB ( '',0.7529411764705882248, 0.000000000000000000, 0.000000000000000000 ) ;
#37 = AXIS2_PLACEMENT_3D ( 'NONE', #238, #63, #129 ) ;
#38 =( CONVERSION_BASED_UNIT ( 'INCH', #125 ) LENGTH_UNIT ( ) NAMED_UNIT ( #55 ) );
#39 = DIRECTION ( 'NONE',  ( 1.000000000000000000, 0.000000000000000000, 0.000000000000000000 ) ) ;
#40 =( CONVERSION_BASED_UNIT ( 'INCH', #75 ) LENGTH_UNIT ( ) NAMED_UNIT ( #203 ) );
#41 =( LENGTH_UNIT ( ) NAMED_UNIT ( * ) SI_UNIT ( $, .METRE. ) );
#42 = ORIENTED_EDGE ( 'NONE', *, *, #235, .T. ) ;
#43 = CARTESIAN_POINT ( 'NONE',  ( -0.2421259842519685179, 2.965188116045756849E-17, 0.000000000000000000 ) ) ;
#44 = ORIENTED_EDGE ( 'NONE', *, *, #180, .F. ) ;
#45 = CARTESIAN_POINT ( 'NONE',  ( -0.2775590551181102428, 3.399118084247574609E-17, 0.000000000000000000 ) ) ;
#46 = LENGTH_MEASURE_WITH_UNIT ( LENGTH_MEASURE( 0.02539999999999999897 ), #62 );
#47 = SURFACE_STYLE_FILL_AREA ( #174 ) ;
#48 = DIRECTION ( 'NONE',  ( 1.000000000000000000, 0.000000000000000000, 0.000000000000000000 ) ) ;
#49 = AXIS2_PLACEMENT_3D ( 'NONE', #131, #92, #4 ) ;
#50 = FACE_OUTER_BOUND ( 'NONE', #12, .T. ) ;
#51 = PRESENTATION_STYLE_ASSIGNMENT (( #221 ) ) ;
#52 = SURFACE_STYLE_USAGE ( .BOTH. , #54 ) ;
#53 = ORIENTED_EDGE ( 'NONE', *, *, #135, .F. ) ;
#54 = SURFACE_SIDE_STYLE ('',( #224 ) ) ;
#55 = DIMENSIONAL_EXPONENTS ( 1.000000000000000000, 0.000000000000000000, 0.000000000000000000, 0.000000000000000000, 0.000000000000000000, 0.000000000000000000, 0.000000000000000000 ) ;
#56 = COLOUR_RGB ( '',1.000000000000000000, 1.000000000000000000, 1.000000000000000000 ) ;
#57 = CARTESIAN_POINT ( 'NONE',  ( 0.000000000000000000, 0.000000000000000000, 0.000000000000000000 ) ) ;
#58 = UNCERTAINTY_MEASURE_WITH_UNIT (LENGTH_MEASURE( 1.000000000000000082E-05 ), #219, 'distance_accuracy_value', 'NONE');
#59 = EDGE_LOOP ( 'NONE', ( #44, #210, #5, #170 ) ) ;
#60 = CARTESIAN_POINT ( 'NONE',  ( 0.000000000000000000, 0.000000000000000000, 0.000000000000000000 ) ) ;
#61 = ADVANCED_BREP_SHAPE_REPRESENTATION ( 'FMW28GG01_3D', ( #194, #120 ), #18 ) ;
#62 =( LENGTH_UNIT ( ) NAMED_UNIT ( * ) SI_UNIT ( $, .METRE. ) );
#63 = DIRECTION ( 'NONE',  ( 0.000000000000000000, -1.000000000000000000, 0.000000000000000000 ) ) ;
#64 = CARTESIAN_POINT ( 'NONE',  ( 0.000000000000000000, 0.000000000000000000, 0.000000000000000000 ) ) ;
#65 = AXIS2_PLACEMENT_3D ( 'NONE', #87, #156, #192 ) ;
#66 = APPLICATION_PROTOCOL_DEFINITION ( 'draft international standard', 'automotive_design', 1998, #214 ) ;
#67 = UNCERTAINTY_MEASURE_WITH_UNIT (LENGTH_MEASURE( 1.000000000000000082E-05 ), #130, 'distance_accuracy_value', 'NONE');
#68 = MECHANICAL_DESIGN_GEOMETRIC_PRESENTATION_REPRESENTATION (  '', ( #165 ), #176 ) ;
#69 = CIRCLE ( 'NONE', #65, 0.2066929133858267931 ) ;
#70 = PRESENTATION_STYLE_ASSIGNMENT (( #227 ) ) ;
#71 = EDGE_CURVE ( 'NONE', #100, #184, #228, .T. ) ;
#72 =( CONVERSION_BASED_UNIT ( 'INCH', #159 ) LENGTH_UNIT ( ) NAMED_UNIT ( #187 ) );
#73 = ORIENTED_EDGE ( 'NONE', *, *, #186, .F. ) ;
#74 = DIMENSIONAL_EXPONENTS ( 1.000000000000000000, 0.000000000000000000, 0.000000000000000000, 0.000000000000000000, 0.000000000000000000, 0.000000000000000000, 0.000000000000000000 ) ;
#75 = LENGTH_MEASURE_WITH_UNIT ( LENGTH_MEASURE( 0.02539999999999999897 ), #133 );
#76 = LENGTH_MEASURE_WITH_UNIT ( LENGTH_MEASURE( 0.02539999999999999897 ), #90 );
#77 = AXIS2_PLACEMENT_3D ( 'NONE', #57, #106, #48 ) ;
#78 = FACE_OUTER_BOUND ( 'NONE', #59, .T. ) ;
#79 = DIRECTION ( 'NONE',  ( 0.000000000000000000, 0.000000000000000000, 1.000000000000000000 ) ) ;
#80 =( LENGTH_UNIT ( ) NAMED_UNIT ( * ) SI_UNIT ( $, .METRE. ) );
#81 = ORIENTED_EDGE ( 'NONE', *, *, #104, .F. ) ;
#82 = ORIENTED_EDGE ( 'NONE', *, *, #71, .F. ) ;
#83 = AXIS2_PLACEMENT_3D ( 'NONE', #239, #26, #215 ) ;
#84 = DIRECTION ( 'NONE',  ( 0.000000000000000000, 0.000000000000000000, 1.000000000000000000 ) ) ;
#85 = PRESENTATION_STYLE_ASSIGNMENT (( #234 ) ) ;
#86 = ADVANCED_FACE ( 'NONE', ( #153 ), #33, .T. ) ;
#87 = CARTESIAN_POINT ( 'NONE',  ( 0.000000000000000000, 0.000000000000000000, -4.339299682018178368E-18 ) ) ;
#88 =( GEOMETRIC_REPRESENTATION_CONTEXT ( 3 ) GLOBAL_UNCERTAINTY_ASSIGNED_CONTEXT ( ( #91 ) ) GLOBAL_UNIT_ASSIGNED_CONTEXT ( ( #40, #136, #232 ) ) REPRESENTATION_CONTEXT ( 'NONE', 'WORKASPACE' ) );
#89 = DIRECTION ( 'NONE',  ( 1.000000000000000000, 0.000000000000000000, 0.000000000000000000 ) ) ;
#90 =( LENGTH_UNIT ( ) NAMED_UNIT ( * ) SI_UNIT ( $, .METRE. ) );
#91 = UNCERTAINTY_MEASURE_WITH_UNIT (LENGTH_MEASURE( 1.000000000000000082E-05 ), #40, 'distance_accuracy_value', 'NONE');
#92 = DIRECTION ( 'NONE',  ( 0.000000000000000000, 0.000000000000000000, 1.000000000000000000 ) ) ;
#93 = SURFACE_SIDE_STYLE ('',( #217 ) ) ;
#94 = PRESENTATION_LAYER_ASSIGNMENT (  '', '', ( #182 ) ) ;
#95 =( NAMED_UNIT ( * ) PLANE_ANGLE_UNIT ( ) SI_UNIT ( $, .RADIAN. ) );
#96 = SURFACE_STYLE_FILL_AREA ( #20 ) ;
#97 = LENGTH_MEASURE_WITH_UNIT ( LENGTH_MEASURE( 0.02539999999999999897 ), #80 );
#98 = TOROIDAL_SURFACE ( 'NONE', #77, 0.2421259842519685179, 0.03543307086614171098 ) ;
#99 = UNCERTAINTY_MEASURE_WITH_UNIT (LENGTH_MEASURE( 1.000000000000000082E-05 ), #163, 'distance_accuracy_value', 'NONE');
#100 = VERTEX_POINT ( 'NONE', #25 ) ;
#101 = ORIENTED_EDGE ( 'NONE', *, *, #186, .T. ) ;
#102 = CARTESIAN_POINT ( 'NONE',  ( 0.000000000000000000, 0.000000000000000000, 0.000000000000000000 ) ) ;
#103 = APPLICATION_CONTEXT ( 'automotive_design' ) ;
#104 = EDGE_CURVE ( 'NONE', #222, #184, #152, .T. ) ;
#105 = UNCERTAINTY_MEASURE_WITH_UNIT (LENGTH_MEASURE( 1.000000000000000082E-05 ), #123, 'distance_accuracy_value', 'NONE');
#106 = DIRECTION ( 'NONE',  ( 0.000000000000000000, 0.000000000000000000, 1.000000000000000000 ) ) ;
#107 = ORIENTED_EDGE ( 'NONE', *, *, #71, .T. ) ;
#108 = CIRCLE ( 'NONE', #83, 0.03543307086614172485 ) ;
#109 = DIRECTION ( 'NONE',  ( 0.000000000000000000, 0.000000000000000000, -1.000000000000000000 ) ) ;
#110 = PRESENTATION_STYLE_ASSIGNMENT (( #29 ) ) ;
#111 = PRODUCT_DEFINITION_FORMATION_WITH_SPECIFIED_SOURCE ( 'ANY', '', #157, .NOT_KNOWN. ) ;
#112 = MECHANICAL_DESIGN_GEOMETRIC_PRESENTATION_REPRESENTATION (  '', ( #182 ), #88 ) ;
#113 = SURFACE_STYLE_FILL_AREA ( #32 ) ;
#114 = PRESENTATION_LAYER_ASSIGNMENT (  '', '', ( #148 ) ) ;
#115 =( LENGTH_UNIT ( ) NAMED_UNIT ( * ) SI_UNIT ( $, .METRE. ) );
#116 = LENGTH_MEASURE_WITH_UNIT ( LENGTH_MEASURE( 0.02539999999999999897 ), #11 );
#117 = PRESENTATION_STYLE_ASSIGNMENT (( #52 ) ) ;
#118 = AXIS2_PLACEMENT_3D ( 'NONE', #60, #127, #89 ) ;
#119 = CARTESIAN_POINT ( 'NONE',  ( 0.000000000000000000, 0.000000000000000000, 0.000000000000000000 ) ) ;
#120 = AXIS2_PLACEMENT_3D ( 'NONE', #218, #84, #24 ) ;
#121 = AXIS2_PLACEMENT_3D ( 'NONE', #119, #79, #39 ) ;
#122 = FILL_AREA_STYLE_COLOUR ( '', #31 ) ;
#123 =( CONVERSION_BASED_UNIT ( 'INCH', #76 ) LENGTH_UNIT ( ) NAMED_UNIT ( #171 ) );
#124 = EDGE_CURVE ( 'NONE', #188, #222, #216, .T. ) ;
#125 = LENGTH_MEASURE_WITH_UNIT ( LENGTH_MEASURE( 0.02539999999999999897 ), #41 );
#126 = PRODUCT_DEFINITION_CONTEXT ( 'detailed design', #214, 'design' ) ;
#127 = DIRECTION ( 'NONE',  ( 0.000000000000000000, 0.000000000000000000, 1.000000000000000000 ) ) ;
#128 = DIRECTION ( 'NONE',  ( 0.000000000000000000, 0.000000000000000000, 1.000000000000000000 ) ) ;
#129 = DIRECTION ( 'NONE',  ( 0.000000000000000000, 0.000000000000000000, -1.000000000000000000 ) ) ;
#130 =( CONVERSION_BASED_UNIT ( 'INCH', #46 ) LENGTH_UNIT ( ) NAMED_UNIT ( #74 ) );
#131 = CARTESIAN_POINT ( 'NONE',  ( 0.000000000000000000, 0.000000000000000000, 0.000000000000000000 ) ) ;
#132 = TOROIDAL_SURFACE ( 'NONE', #121, 0.2421259842519685179, 0.03543307086614171098 ) ;
#133 =( LENGTH_UNIT ( ) NAMED_UNIT ( * ) SI_UNIT ( $, .METRE. ) );
#134 = MECHANICAL_DESIGN_GEOMETRIC_PRESENTATION_REPRESENTATION (  '', ( #148 ), #10 ) ;
#135 = EDGE_CURVE ( 'NONE', #222, #188, #167, .T. ) ;
#136 =( NAMED_UNIT ( * ) PLANE_ANGLE_UNIT ( ) SI_UNIT ( $, .RADIAN. ) );
#137 = DIRECTION ( 'NONE',  ( 0.000000000000000000, 0.000000000000000000, 1.000000000000000000 ) ) ;
#138 = DIRECTION ( 'NONE',  ( 1.224646799147353207E-16, 1.000000000000000000, -0.000000000000000000 ) ) ;
#139 = DIRECTION ( 'NONE',  ( 0.000000000000000000, -1.000000000000000000, 0.000000000000000000 ) ) ;
#140 = FILL_AREA_STYLE ('',( #173 ) ) ;
#141 = PRODUCT_RELATED_PRODUCT_CATEGORY ( 'part', '', ( #157 ) ) ;
#142 = CLOSED_SHELL ( 'NONE', ( #200, #86, #6, #16 ) ) ;
#143 = EDGE_CURVE ( 'NONE', #184, #222, #206, .T. ) ;
#144 =( GEOMETRIC_REPRESENTATION_CONTEXT ( 3 ) GLOBAL_UNCERTAINTY_ASSIGNED_CONTEXT ( ( #195 ) ) GLOBAL_UNIT_ASSIGNED_CONTEXT ( ( #72, #177, #19 ) ) REPRESENTATION_CONTEXT ( 'NONE', 'WORKASPACE' ) );
#145 = FILL_AREA_STYLE ('',( #34 ) ) ;
#146 = STYLED_ITEM ( 'NONE', ( #110 ), #61 ) ;
#147 = DIRECTION ( 'NONE',  ( 1.000000000000000000, 0.000000000000000000, 0.000000000000000000 ) ) ;
#148 = STYLED_ITEM ( 'NONE', ( #85 ), #86 ) ;
#149 = SURFACE_SIDE_STYLE ('',( #8 ) ) ;
#150 = ORIENTED_EDGE ( 'NONE', *, *, #143, .F. ) ;
#151 = TOROIDAL_SURFACE ( 'NONE', #49, 0.2421259842519685179, 0.03543307086614171098 ) ;
#152 = CIRCLE ( 'NONE', #3, 0.2775590551181102428 ) ;
#153 = FACE_OUTER_BOUND ( 'NONE', #22, .T. ) ;
#154 = DIMENSIONAL_EXPONENTS ( 1.000000000000000000, 0.000000000000000000, 0.000000000000000000, 0.000000000000000000, 0.000000000000000000, 0.000000000000000000, 0.000000000000000000 ) ;
#155 = DIRECTION ( 'NONE',  ( -1.000000000000000000, 1.224646799147352468E-16, 0.000000000000000000 ) ) ;
#156 = DIRECTION ( 'NONE',  ( 0.000000000000000000, 0.000000000000000000, 1.000000000000000000 ) ) ;
#157 = PRODUCT ( 'FMW28GG01_3D', 'FMW28GG01_3D', '', ( #193 ) ) ;
#158 = AXIS2_PLACEMENT_3D ( 'NONE', #43, #138, #155 ) ;
#159 = LENGTH_MEASURE_WITH_UNIT ( LENGTH_MEASURE( 0.02539999999999999897 ), #115 );
#160 = FACE_OUTER_BOUND ( 'NONE', #213, .T. ) ;
#161 =( NAMED_UNIT ( * ) PLANE_ANGLE_UNIT ( ) SI_UNIT ( $, .RADIAN. ) );
#162 = FILL_AREA_STYLE_COLOUR ( '', #237 ) ;
#163 =( CONVERSION_BASED_UNIT ( 'INCH', #97 ) LENGTH_UNIT ( ) NAMED_UNIT ( #154 ) );
#164 = ORIENTED_EDGE ( 'NONE', *, *, #180, .T. ) ;
#165 = STYLED_ITEM ( 'NONE', ( #51 ), #16 ) ;
#166 =( NAMED_UNIT ( * ) PLANE_ANGLE_UNIT ( ) SI_UNIT ( $, .RADIAN. ) );
#167 = CIRCLE ( 'NONE', #13, 0.03543307086614171098 ) ;
#168 = DIRECTION ( 'NONE',  ( 1.000000000000000000, 0.000000000000000000, 0.000000000000000000 ) ) ;
#169 = SURFACE_SIDE_STYLE ('',( #47 ) ) ;
#170 = ORIENTED_EDGE ( 'NONE', *, *, #235, .F. ) ;
#171 = DIMENSIONAL_EXPONENTS ( 1.000000000000000000, 0.000000000000000000, 0.000000000000000000, 0.000000000000000000, 0.000000000000000000, 0.000000000000000000, 0.000000000000000000 ) ;
#172 = SHAPE_DEFINITION_REPRESENTATION ( #30, #61 ) ;
#173 = FILL_AREA_STYLE_COLOUR ( '', #56 ) ;
#174 = FILL_AREA_STYLE ('',( #208 ) ) ;
#175 = CIRCLE ( 'NONE', #225, 0.2066929133858267931 ) ;
#176 =( GEOMETRIC_REPRESENTATION_CONTEXT ( 3 ) GLOBAL_UNCERTAINTY_ASSIGNED_CONTEXT ( ( #99 ) ) GLOBAL_UNIT_ASSIGNED_CONTEXT ( ( #163, #231, #207 ) ) REPRESENTATION_CONTEXT ( 'NONE', 'WORKASPACE' ) );
#177 =( NAMED_UNIT ( * ) PLANE_ANGLE_UNIT ( ) SI_UNIT ( $, .RADIAN. ) );
#178 = PRODUCT_DEFINITION ( 'UNKNOWN', '', #111, #126 ) ;
#179 = COLOUR_RGB ( '',0.7529411764705882248, 0.000000000000000000, 0.000000000000000000 ) ;
#180 = EDGE_CURVE ( 'NONE', #184, #100, #108, .T. ) ;
#181 =( NAMED_UNIT ( * ) SI_UNIT ( $, .STERADIAN. ) SOLID_ANGLE_UNIT ( ) );
#182 = STYLED_ITEM ( 'NONE', ( #230 ), #200 ) ;
#183 = FILL_AREA_STYLE ('',( #162 ) ) ;
#184 = VERTEX_POINT ( 'NONE', #45 ) ;
#185 = CARTESIAN_POINT ( 'NONE',  ( 0.2775590551181102428, 0.000000000000000000, 0.000000000000000000 ) ) ;
#186 = EDGE_CURVE ( 'NONE', #188, #100, #69, .T. ) ;
#187 = DIMENSIONAL_EXPONENTS ( 1.000000000000000000, 0.000000000000000000, 0.000000000000000000, 0.000000000000000000, 0.000000000000000000, 0.000000000000000000, 0.000000000000000000 ) ;
#188 = VERTEX_POINT ( 'NONE', #28 ) ;
#189 = CARTESIAN_POINT ( 'NONE',  ( 0.2421259842519685179, 0.000000000000000000, 0.000000000000000000 ) ) ;
#190 = DIMENSIONAL_EXPONENTS ( 1.000000000000000000, 0.000000000000000000, 0.000000000000000000, 0.000000000000000000, 0.000000000000000000, 0.000000000000000000, 0.000000000000000000 ) ;
#191 = MECHANICAL_DESIGN_GEOMETRIC_PRESENTATION_REPRESENTATION (  '', ( #202 ), #21 ) ;
#192 = DIRECTION ( 'NONE',  ( 1.000000000000000000, 0.000000000000000000, 0.000000000000000000 ) ) ;
#193 = PRODUCT_CONTEXT ( 'NONE', #103, 'mechanical' ) ;
#194 = MANIFOLD_SOLID_BREP ( 'Sweep1', #142 ) ;
#195 = UNCERTAINTY_MEASURE_WITH_UNIT (LENGTH_MEASURE( 1.000000000000000082E-05 ), #72, 'distance_accuracy_value', 'NONE');
#196 = COLOUR_RGB ( '',0.7529411764705882248, 0.000000000000000000, 0.000000000000000000 ) ;
#197 = PRESENTATION_LAYER_ASSIGNMENT (  '', '', ( #146 ) ) ;
#198 = FILL_AREA_STYLE_COLOUR ( '', #36 ) ;
#199 = SURFACE_SIDE_STYLE ('',( #113 ) ) ;
#200 = ADVANCED_FACE ( 'NONE', ( #78 ), #132, .T. ) ;
#201 = ORIENTED_EDGE ( 'NONE', *, *, #124, .T. ) ;
#202 = STYLED_ITEM ( 'NONE', ( #70 ), #194 ) ;
#203 = DIMENSIONAL_EXPONENTS ( 1.000000000000000000, 0.000000000000000000, 0.000000000000000000, 0.000000000000000000, 0.000000000000000000, 0.000000000000000000, 0.000000000000000000 ) ;
#204 = SURFACE_STYLE_USAGE ( .BOTH. , #149 ) ;
#205 = PRESENTATION_LAYER_ASSIGNMENT (  '', '', ( #165 ) ) ;
#206 = CIRCLE ( 'NONE', #220, 0.2775590551181102428 ) ;
#207 =( NAMED_UNIT ( * ) SI_UNIT ( $, .STERADIAN. ) SOLID_ANGLE_UNIT ( ) );
#208 = FILL_AREA_STYLE_COLOUR ( '', #179 ) ;
#209 = CARTESIAN_POINT ( 'NONE',  ( 0.000000000000000000, 0.000000000000000000, -4.339299682018178368E-18 ) ) ;
#210 = ORIENTED_EDGE ( 'NONE', *, *, #143, .T. ) ;
#211 = SURFACE_SIDE_STYLE ('',( #96 ) ) ;
#212 = MECHANICAL_DESIGN_GEOMETRIC_PRESENTATION_REPRESENTATION (  '', ( #146 ), #236 ) ;
#213 = EDGE_LOOP ( 'NONE', ( #81, #233, #101, #107 ) ) ;
#214 = APPLICATION_CONTEXT ( 'automotive_design' ) ;
#215 = DIRECTION ( 'NONE',  ( -1.000000000000000000, 1.224646799147352468E-16, 0.000000000000000000 ) ) ;
#216 = CIRCLE ( 'NONE', #37, 0.03543307086614171098 ) ;
#217 = SURFACE_STYLE_FILL_AREA ( #140 ) ;
#218 = CARTESIAN_POINT ( 'NONE',  ( 0.000000000000000000, 0.000000000000000000, 0.000000000000000000 ) ) ;
#219 =( CONVERSION_BASED_UNIT ( 'INCH', #116 ) LENGTH_UNIT ( ) NAMED_UNIT ( #190 ) );
#220 = AXIS2_PLACEMENT_3D ( 'NONE', #64, #128, #14 ) ;
#221 = SURFACE_STYLE_USAGE ( .BOTH. , #199 ) ;
#222 = VERTEX_POINT ( 'NONE', #185 ) ;
#223 = PRESENTATION_LAYER_ASSIGNMENT (  '', '', ( #1 ) ) ;
#224 = SURFACE_STYLE_FILL_AREA ( #145 ) ;
#225 = AXIS2_PLACEMENT_3D ( 'NONE', #209, #7, #147 ) ;
#226 = APPLICATION_PROTOCOL_DEFINITION ( 'draft international standard', 'automotive_design', 1998, #103 ) ;
#227 = SURFACE_STYLE_USAGE ( .BOTH. , #93 ) ;
#228 = CIRCLE ( 'NONE', #158, 0.03543307086614172485 ) ;
#229 =( NAMED_UNIT ( * ) PLANE_ANGLE_UNIT ( ) SI_UNIT ( $, .RADIAN. ) );
#230 = PRESENTATION_STYLE_ASSIGNMENT (( #204 ) ) ;
#231 =( NAMED_UNIT ( * ) PLANE_ANGLE_UNIT ( ) SI_UNIT ( $, .RADIAN. ) );
#232 =( NAMED_UNIT ( * ) SI_UNIT ( $, .STERADIAN. ) SOLID_ANGLE_UNIT ( ) );
#233 = ORIENTED_EDGE ( 'NONE', *, *, #124, .F. ) ;
#234 = SURFACE_STYLE_USAGE ( .BOTH. , #169 ) ;
#235 = EDGE_CURVE ( 'NONE', #100, #188, #175, .T. ) ;
#236 =( GEOMETRIC_REPRESENTATION_CONTEXT ( 3 ) GLOBAL_UNCERTAINTY_ASSIGNED_CONTEXT ( ( #67 ) ) GLOBAL_UNIT_ASSIGNED_CONTEXT ( ( #130, #166, #15 ) ) REPRESENTATION_CONTEXT ( 'NONE', 'WORKASPACE' ) );
#237 = COLOUR_RGB ( '',0.7529411764705882248, 0.000000000000000000, 0.000000000000000000 ) ;
#238 = CARTESIAN_POINT ( 'NONE',  ( 0.2421259842519685179, 0.000000000000000000, 0.000000000000000000 ) ) ;
#239 = CARTESIAN_POINT ( 'NONE',  ( -0.2421259842519685179, 2.965188116045756849E-17, 0.000000000000000000 ) ) ;
ENDSEC;
END-ISO-10303-21;
