ISO-10303-21;
HEADER;
FILE_DESCRIPTION (( 'STEP AP214' ),
    '1' );
FILE_NAME ('FMW34GG01_3D.step',
    '2024-09-23T17:02:05',
    ( '' ),
    ( '' ),
    'SwSTEP 2.0',
    'SolidWorks 2022',
    '' );
FILE_SCHEMA (( 'AUTOMOTIVE_DESIGN' ));
ENDSEC;

DATA;
#1 =( GEOMETRIC_REPRESENTATION_CONTEXT ( 3 ) GLOBAL_UNCERTAINTY_ASSIGNED_CONTEXT ( ( #118 ) ) GLOBAL_UNIT_ASSIGNED_CONTEXT ( ( #135, #221, #66 ) ) REPRESENTATION_CONTEXT ( 'NONE', 'WORKASPACE' ) );
#2 = STYLED_ITEM ( 'NONE', ( #29 ), #233 ) ;
#3 = CARTESIAN_POINT ( 'NONE',  ( 0.000000000000000000, 0.000000000000000000, 0.000000000000000000 ) ) ;
#4 = SURFACE_STYLE_FILL_AREA ( #192 ) ;
#5 = SURFACE_SIDE_STYLE ('',( #4 ) ) ;
#6 = STYLED_ITEM ( 'NONE', ( #132 ), #10 ) ;
#7 = CARTESIAN_POINT ( 'NONE',  ( -0.3110236220472441526, 3.808940831993736751E-17, 0.000000000000000000 ) ) ;
#8 = PRODUCT_DEFINITION_FORMATION_WITH_SPECIFIED_SOURCE ( 'ANY', '', #31, .NOT_KNOWN. ) ;
#9 = FILL_AREA_STYLE_COLOUR ( '', #151 ) ;
#10 = ADVANCED_FACE ( 'NONE', ( #38 ), #48, .T. ) ;
#11 = CARTESIAN_POINT ( 'NONE',  ( 0.3110236220472441526, 0.000000000000000000, 0.000000000000000000 ) ) ;
#12 = SURFACE_SIDE_STYLE ('',( #71 ) ) ;
#13 = AXIS2_PLACEMENT_3D ( 'NONE', #7, #81, #84 ) ;
#14 = SURFACE_STYLE_USAGE ( .BOTH. , #73 ) ;
#15 = PRODUCT_DEFINITION ( 'UNKNOWN', '', #8, #162 ) ;
#16 = CIRCLE ( 'NONE', #234, 0.03543307086614171098 ) ;
#17 = LENGTH_MEASURE_WITH_UNIT ( LENGTH_MEASURE( 0.02539999999999999897 ), #206 );
#18 = VERTEX_POINT ( 'NONE', #226 ) ;
#19 = ORIENTED_EDGE ( 'NONE', *, *, #161, .F. ) ;
#20 = DIMENSIONAL_EXPONENTS ( 1.000000000000000000, 0.000000000000000000, 0.000000000000000000, 0.000000000000000000, 0.000000000000000000, 0.000000000000000000, 0.000000000000000000 ) ;
#21 = MECHANICAL_DESIGN_GEOMETRIC_PRESENTATION_REPRESENTATION (  '', ( #2 ), #36 ) ;
#22 = ADVANCED_FACE ( 'NONE', ( #224 ), #137, .T. ) ;
#23 = SURFACE_STYLE_FILL_AREA ( #103 ) ;
#24 = EDGE_LOOP ( 'NONE', ( #76, #56, #39, #156 ) ) ;
#25 = DIRECTION ( 'NONE',  ( 0.000000000000000000, 0.000000000000000000, 1.000000000000000000 ) ) ;
#26 = COLOUR_RGB ( '',0.7529411764705882248, 0.000000000000000000, 0.000000000000000000 ) ;
#27 = DIRECTION ( 'NONE',  ( 0.000000000000000000, 0.000000000000000000, 1.000000000000000000 ) ) ;
#28 = SURFACE_STYLE_USAGE ( .BOTH. , #88 ) ;
#29 = PRESENTATION_STYLE_ASSIGNMENT (( #28 ) ) ;
#30 = STYLED_ITEM ( 'NONE', ( #43 ), #117 ) ;
#31 = PRODUCT ( 'FMW34GG01_3D', 'FMW34GG01_3D', '', ( #129 ) ) ;
#32 = FILL_AREA_STYLE ('',( #70 ) ) ;
#33 = DIRECTION ( 'NONE',  ( 0.000000000000000000, 0.000000000000000000, -1.000000000000000000 ) ) ;
#34 = SURFACE_STYLE_USAGE ( .BOTH. , #95 ) ;
#35 = ADVANCED_BREP_SHAPE_REPRESENTATION ( 'FMW34GG01_3D', ( #117, #116 ), #115 ) ;
#36 =( GEOMETRIC_REPRESENTATION_CONTEXT ( 3 ) GLOBAL_UNCERTAINTY_ASSIGNED_CONTEXT ( ( #218 ) ) GLOBAL_UNIT_ASSIGNED_CONTEXT ( ( #105, #181, #145 ) ) REPRESENTATION_CONTEXT ( 'NONE', 'WORKASPACE' ) );
#37 = VERTEX_POINT ( 'NONE', #124 ) ;
#38 = FACE_OUTER_BOUND ( 'NONE', #188, .T. ) ;
#39 = ORIENTED_EDGE ( 'NONE', *, *, #144, .T. ) ;
#40 = AXIS2_PLACEMENT_3D ( 'NONE', #159, #64, #139 ) ;
#41 =( GEOMETRIC_REPRESENTATION_CONTEXT ( 3 ) GLOBAL_UNCERTAINTY_ASSIGNED_CONTEXT ( ( #150 ) ) GLOBAL_UNIT_ASSIGNED_CONTEXT ( ( #189, #211, #42 ) ) REPRESENTATION_CONTEXT ( 'NONE', 'WORKASPACE' ) );
#42 =( NAMED_UNIT ( * ) SI_UNIT ( $, .STERADIAN. ) SOLID_ANGLE_UNIT ( ) );
#43 = PRESENTATION_STYLE_ASSIGNMENT (( #232 ) ) ;
#44 = CARTESIAN_POINT ( 'NONE',  ( 0.000000000000000000, 0.000000000000000000, 0.000000000000000000 ) ) ;
#45 = DIRECTION ( 'NONE',  ( 1.000000000000000000, 0.000000000000000000, 0.000000000000000000 ) ) ;
#46 = CARTESIAN_POINT ( 'NONE',  ( 0.000000000000000000, 0.000000000000000000, 0.000000000000000000 ) ) ;
#47 = CARTESIAN_POINT ( 'NONE',  ( 0.000000000000000000, 0.000000000000000000, 0.000000000000000000 ) ) ;
#48 = TOROIDAL_SURFACE ( 'NONE', #202, 0.3110236220472441526, 0.03543307086614171098 ) ;
#49 = AXIS2_PLACEMENT_3D ( 'NONE', #44, #155, #172 ) ;
#50 = EDGE_CURVE ( 'NONE', #18, #77, #148, .T. ) ;
#51 = DIMENSIONAL_EXPONENTS ( 1.000000000000000000, 0.000000000000000000, 0.000000000000000000, 0.000000000000000000, 0.000000000000000000, 0.000000000000000000, 0.000000000000000000 ) ;
#52 =( LENGTH_UNIT ( ) NAMED_UNIT ( * ) SI_UNIT ( $, .METRE. ) );
#53 = ORIENTED_EDGE ( 'NONE', *, *, #182, .F. ) ;
#54 = PRESENTATION_LAYER_ASSIGNMENT (  '', '', ( #6 ) ) ;
#55 =( NAMED_UNIT ( * ) PLANE_ANGLE_UNIT ( ) SI_UNIT ( $, .RADIAN. ) );
#56 = ORIENTED_EDGE ( 'NONE', *, *, #187, .F. ) ;
#57 = ORIENTED_EDGE ( 'NONE', *, *, #161, .T. ) ;
#58 = DIMENSIONAL_EXPONENTS ( 1.000000000000000000, 0.000000000000000000, 0.000000000000000000, 0.000000000000000000, 0.000000000000000000, 0.000000000000000000, 0.000000000000000000 ) ;
#59 = FILL_AREA_STYLE_COLOUR ( '', #130 ) ;
#60 = AXIS2_PLACEMENT_3D ( 'NONE', #194, #27, #109 ) ;
#61 =( LENGTH_UNIT ( ) NAMED_UNIT ( * ) SI_UNIT ( $, .METRE. ) );
#62 = LENGTH_MEASURE_WITH_UNIT ( LENGTH_MEASURE( 0.02539999999999999897 ), #147 );
#63 = EDGE_CURVE ( 'NONE', #37, #178, #133, .T. ) ;
#64 = DIRECTION ( 'NONE',  ( 0.000000000000000000, 0.000000000000000000, 1.000000000000000000 ) ) ;
#65 = UNCERTAINTY_MEASURE_WITH_UNIT (LENGTH_MEASURE( 1.000000000000000082E-05 ), #74, 'distance_accuracy_value', 'NONE');
#66 =( NAMED_UNIT ( * ) SI_UNIT ( $, .STERADIAN. ) SOLID_ANGLE_UNIT ( ) );
#67 = AXIS2_PLACEMENT_3D ( 'NONE', #149, #165, #197 ) ;
#68 = CARTESIAN_POINT ( 'NONE',  ( 0.2755905511811024278, 0.000000000000000000, -4.339299682018176828E-18 ) ) ;
#69 = PRESENTATION_STYLE_ASSIGNMENT (( #14 ) ) ;
#70 = FILL_AREA_STYLE_COLOUR ( '', #26 ) ;
#71 = SURFACE_STYLE_FILL_AREA ( #167 ) ;
#72 = PRODUCT_RELATED_PRODUCT_CATEGORY ( 'part', '', ( #31 ) ) ;
#73 = SURFACE_SIDE_STYLE ('',( #237 ) ) ;
#74 =( CONVERSION_BASED_UNIT ( 'INCH', #17 ) LENGTH_UNIT ( ) NAMED_UNIT ( #231 ) );
#75 = EDGE_LOOP ( 'NONE', ( #53, #96, #86, #19 ) ) ;
#76 = ORIENTED_EDGE ( 'NONE', *, *, #169, .F. ) ;
#77 = VERTEX_POINT ( 'NONE', #68 ) ;
#78 =( NAMED_UNIT ( * ) PLANE_ANGLE_UNIT ( ) SI_UNIT ( $, .RADIAN. ) );
#79 =( GEOMETRIC_REPRESENTATION_CONTEXT ( 3 ) GLOBAL_UNCERTAINTY_ASSIGNED_CONTEXT ( ( #235 ) ) GLOBAL_UNIT_ASSIGNED_CONTEXT ( ( #183, #92, #128 ) ) REPRESENTATION_CONTEXT ( 'NONE', 'WORKASPACE' ) );
#80 = DIMENSIONAL_EXPONENTS ( 1.000000000000000000, 0.000000000000000000, 0.000000000000000000, 0.000000000000000000, 0.000000000000000000, 0.000000000000000000, 0.000000000000000000 ) ;
#81 = DIRECTION ( 'NONE',  ( 1.224646799147353207E-16, 1.000000000000000000, -0.000000000000000000 ) ) ;
#82 = CLOSED_SHELL ( 'NONE', ( #179, #10, #233, #22 ) ) ;
#83 = CIRCLE ( 'NONE', #40, 0.2755905511811024278 ) ;
#84 = DIRECTION ( 'NONE',  ( -1.000000000000000000, 1.224646799147353207E-16, 0.000000000000000000 ) ) ;
#85 = DIRECTION ( 'NONE',  ( 0.000000000000000000, 0.000000000000000000, 1.000000000000000000 ) ) ;
#86 = ORIENTED_EDGE ( 'NONE', *, *, #50, .T. ) ;
#87 = PRESENTATION_LAYER_ASSIGNMENT (  '', '', ( #98 ) ) ;
#88 = SURFACE_SIDE_STYLE ('',( #125 ) ) ;
#89 = LENGTH_MEASURE_WITH_UNIT ( LENGTH_MEASURE( 0.02539999999999999897 ), #166 );
#90 = SURFACE_STYLE_USAGE ( .BOTH. , #12 ) ;
#91 = UNCERTAINTY_MEASURE_WITH_UNIT (LENGTH_MEASURE( 1.000000000000000082E-05 ), #97, 'distance_accuracy_value', 'NONE');
#92 =( NAMED_UNIT ( * ) PLANE_ANGLE_UNIT ( ) SI_UNIT ( $, .RADIAN. ) );
#93 = DIRECTION ( 'NONE',  ( 1.000000000000000000, 0.000000000000000000, 0.000000000000000000 ) ) ;
#94 = LENGTH_MEASURE_WITH_UNIT ( LENGTH_MEASURE( 0.02539999999999999897 ), #52 );
#95 = SURFACE_SIDE_STYLE ('',( #205 ) ) ;
#96 = ORIENTED_EDGE ( 'NONE', *, *, #110, .T. ) ;
#97 =( CONVERSION_BASED_UNIT ( 'INCH', #94 ) LENGTH_UNIT ( ) NAMED_UNIT ( #80 ) );
#98 = STYLED_ITEM ( 'NONE', ( #160 ), #22 ) ;
#99 = MECHANICAL_DESIGN_GEOMETRIC_PRESENTATION_REPRESENTATION (  '', ( #127 ), #79 ) ;
#100 = CARTESIAN_POINT ( 'NONE',  ( 0.000000000000000000, 0.000000000000000000, 0.000000000000000000 ) ) ;
#101 = DIMENSIONAL_EXPONENTS ( 1.000000000000000000, 0.000000000000000000, 0.000000000000000000, 0.000000000000000000, 0.000000000000000000, 0.000000000000000000, 0.000000000000000000 ) ;
#102 = CARTESIAN_POINT ( 'NONE',  ( 0.3110236220472441526, 0.000000000000000000, 0.000000000000000000 ) ) ;
#103 = FILL_AREA_STYLE ('',( #59 ) ) ;
#104 = SURFACE_STYLE_USAGE ( .BOTH. , #5 ) ;
#105 =( CONVERSION_BASED_UNIT ( 'INCH', #89 ) LENGTH_UNIT ( ) NAMED_UNIT ( #51 ) );
#106 = AXIS2_PLACEMENT_3D ( 'NONE', #100, #85, #176 ) ;
#107 = FILL_AREA_STYLE ('',( #9 ) ) ;
#108 = DIRECTION ( 'NONE',  ( 0.000000000000000000, -1.000000000000000000, 0.000000000000000000 ) ) ;
#109 = DIRECTION ( 'NONE',  ( 1.000000000000000000, 0.000000000000000000, 0.000000000000000000 ) ) ;
#110 = EDGE_CURVE ( 'NONE', #178, #18, #238, .T. ) ;
#111 = AXIS2_PLACEMENT_3D ( 'NONE', #46, #214, #45 ) ;
#112 =( NAMED_UNIT ( * ) SI_UNIT ( $, .STERADIAN. ) SOLID_ANGLE_UNIT ( ) );
#113 = DIRECTION ( 'NONE',  ( 0.000000000000000000, 0.000000000000000000, 1.000000000000000000 ) ) ;
#114 = COLOUR_RGB ( '',0.7529411764705882248, 0.000000000000000000, 0.000000000000000000 ) ;
#115 =( GEOMETRIC_REPRESENTATION_CONTEXT ( 3 ) GLOBAL_UNCERTAINTY_ASSIGNED_CONTEXT ( ( #65 ) ) GLOBAL_UNIT_ASSIGNED_CONTEXT ( ( #74, #78, #112 ) ) REPRESENTATION_CONTEXT ( 'NONE', 'WORKASPACE' ) );
#116 = AXIS2_PLACEMENT_3D ( 'NONE', #220, #113, #173 ) ;
#117 = MANIFOLD_SOLID_BREP ( 'Sweep1', #82 ) ;
#118 = UNCERTAINTY_MEASURE_WITH_UNIT (LENGTH_MEASURE( 1.000000000000000082E-05 ), #135, 'distance_accuracy_value', 'NONE');
#119 = TOROIDAL_SURFACE ( 'NONE', #152, 0.3110236220472441526, 0.03543307086614171098 ) ;
#120 =( CONVERSION_BASED_UNIT ( 'INCH', #175 ) LENGTH_UNIT ( ) NAMED_UNIT ( #58 ) );
#121 = SURFACE_SIDE_STYLE ('',( #23 ) ) ;
#122 = LENGTH_MEASURE_WITH_UNIT ( LENGTH_MEASURE( 0.02539999999999999897 ), #61 );
#123 = MECHANICAL_DESIGN_GEOMETRIC_PRESENTATION_REPRESENTATION (  '', ( #98 ), #41 ) ;
#124 = CARTESIAN_POINT ( 'NONE',  ( -0.2755905511811024278, 3.375010863791918375E-17, -4.339299682018176828E-18 ) ) ;
#125 = SURFACE_STYLE_FILL_AREA ( #107 ) ;
#126 = DIRECTION ( 'NONE',  ( 1.000000000000000000, 0.000000000000000000, 0.000000000000000000 ) ) ;
#127 = STYLED_ITEM ( 'NONE', ( #69 ), #179 ) ;
#128 =( NAMED_UNIT ( * ) SI_UNIT ( $, .STERADIAN. ) SOLID_ANGLE_UNIT ( ) );
#129 = PRODUCT_CONTEXT ( 'NONE', #228, 'mechanical' ) ;
#130 = COLOUR_RGB ( '',1.000000000000000000, 1.000000000000000000, 1.000000000000000000 ) ;
#131 = FILL_AREA_STYLE ('',( #223 ) ) ;
#132 = PRESENTATION_STYLE_ASSIGNMENT (( #90 ) ) ;
#133 = CIRCLE ( 'NONE', #13, 0.03543307086614172485 ) ;
#134 = APPLICATION_PROTOCOL_DEFINITION ( 'draft international standard', 'automotive_design', 1998, #228 ) ;
#135 =( CONVERSION_BASED_UNIT ( 'INCH', #62 ) LENGTH_UNIT ( ) NAMED_UNIT ( #20 ) );
#136 = ORIENTED_EDGE ( 'NONE', *, *, #63, .F. ) ;
#137 = TOROIDAL_SURFACE ( 'NONE', #106, 0.3110236220472441526, 0.03543307086614171098 ) ;
#138 = DIRECTION ( 'NONE',  ( 0.000000000000000000, 0.000000000000000000, 1.000000000000000000 ) ) ;
#139 = DIRECTION ( 'NONE',  ( 1.000000000000000000, 0.000000000000000000, 0.000000000000000000 ) ) ;
#140 =( LENGTH_UNIT ( ) NAMED_UNIT ( * ) SI_UNIT ( $, .METRE. ) );
#141 = COLOUR_RGB ( '',0.7529411764705882248, 0.000000000000000000, 0.000000000000000000 ) ;
#142 =( GEOMETRIC_REPRESENTATION_CONTEXT ( 3 ) GLOBAL_UNCERTAINTY_ASSIGNED_CONTEXT ( ( #191 ) ) GLOBAL_UNIT_ASSIGNED_CONTEXT ( ( #120, #193, #213 ) ) REPRESENTATION_CONTEXT ( 'NONE', 'WORKASPACE' ) );
#143 = DIRECTION ( 'NONE',  ( 1.000000000000000000, 0.000000000000000000, 0.000000000000000000 ) ) ;
#144 = EDGE_CURVE ( 'NONE', #77, #37, #83, .T. ) ;
#145 =( NAMED_UNIT ( * ) SI_UNIT ( $, .STERADIAN. ) SOLID_ANGLE_UNIT ( ) );
#146 = FACE_OUTER_BOUND ( 'NONE', #24, .T. ) ;
#147 =( LENGTH_UNIT ( ) NAMED_UNIT ( * ) SI_UNIT ( $, .METRE. ) );
#148 = CIRCLE ( 'NONE', #236, 0.03543307086614171098 ) ;
#149 = CARTESIAN_POINT ( 'NONE',  ( -0.3110236220472441526, 3.808940831993736751E-17, 0.000000000000000000 ) ) ;
#150 = UNCERTAINTY_MEASURE_WITH_UNIT (LENGTH_MEASURE( 1.000000000000000082E-05 ), #189, 'distance_accuracy_value', 'NONE');
#151 = COLOUR_RGB ( '',0.7529411764705882248, 0.000000000000000000, 0.000000000000000000 ) ;
#152 = AXIS2_PLACEMENT_3D ( 'NONE', #47, #199, #93 ) ;
#153 =( NAMED_UNIT ( * ) SI_UNIT ( $, .STERADIAN. ) SOLID_ANGLE_UNIT ( ) );
#154 = ORIENTED_EDGE ( 'NONE', *, *, #144, .F. ) ;
#155 = DIRECTION ( 'NONE',  ( 0.000000000000000000, 0.000000000000000000, 1.000000000000000000 ) ) ;
#156 = ORIENTED_EDGE ( 'NONE', *, *, #63, .T. ) ;
#157 = DIRECTION ( 'NONE',  ( 0.000000000000000000, -1.000000000000000000, 0.000000000000000000 ) ) ;
#158 = PRESENTATION_LAYER_ASSIGNMENT (  '', '', ( #2 ) ) ;
#159 = CARTESIAN_POINT ( 'NONE',  ( 0.000000000000000000, 0.000000000000000000, -4.339299682018178368E-18 ) ) ;
#160 = PRESENTATION_STYLE_ASSIGNMENT (( #104 ) ) ;
#161 = EDGE_CURVE ( 'NONE', #37, #77, #171, .T. ) ;
#162 = PRODUCT_DEFINITION_CONTEXT ( 'detailed design', #204, 'design' ) ;
#163 = MECHANICAL_DESIGN_GEOMETRIC_PRESENTATION_REPRESENTATION (  '', ( #6 ), #1 ) ;
#164 = PRESENTATION_LAYER_ASSIGNMENT (  '', '', ( #30 ) ) ;
#165 = DIRECTION ( 'NONE',  ( 1.224646799147353207E-16, 1.000000000000000000, -0.000000000000000000 ) ) ;
#166 =( LENGTH_UNIT ( ) NAMED_UNIT ( * ) SI_UNIT ( $, .METRE. ) );
#167 = FILL_AREA_STYLE ('',( #219 ) ) ;
#168 = STYLED_ITEM ( 'NONE', ( #227 ), #35 ) ;
#169 = EDGE_CURVE ( 'NONE', #18, #178, #230, .T. ) ;
#170 = CARTESIAN_POINT ( 'NONE',  ( -0.3464566929133858775, 4.242870800195554511E-17, 0.000000000000000000 ) ) ;
#171 = CIRCLE ( 'NONE', #60, 0.2755905511811024278 ) ;
#172 = DIRECTION ( 'NONE',  ( 1.000000000000000000, 0.000000000000000000, 0.000000000000000000 ) ) ;
#173 = DIRECTION ( 'NONE',  ( 1.000000000000000000, 0.000000000000000000, 0.000000000000000000 ) ) ;
#174 = ORIENTED_EDGE ( 'NONE', *, *, #169, .T. ) ;
#175 = LENGTH_MEASURE_WITH_UNIT ( LENGTH_MEASURE( 0.02539999999999999897 ), #140 );
#176 = DIRECTION ( 'NONE',  ( 1.000000000000000000, 0.000000000000000000, 0.000000000000000000 ) ) ;
#177 = FILL_AREA_STYLE_COLOUR ( '', #141 ) ;
#178 = VERTEX_POINT ( 'NONE', #170 ) ;
#179 = ADVANCED_FACE ( 'NONE', ( #217 ), #119, .T. ) ;
#180 = ORIENTED_EDGE ( 'NONE', *, *, #50, .F. ) ;
#181 =( NAMED_UNIT ( * ) PLANE_ANGLE_UNIT ( ) SI_UNIT ( $, .RADIAN. ) );
#182 = EDGE_CURVE ( 'NONE', #178, #37, #212, .T. ) ;
#183 =( CONVERSION_BASED_UNIT ( 'INCH', #216 ) LENGTH_UNIT ( ) NAMED_UNIT ( #101 ) );
#184 = PRODUCT_DEFINITION_SHAPE ( 'NONE', 'NONE',  #15 ) ;
#185 = DIMENSIONAL_EXPONENTS ( 1.000000000000000000, 0.000000000000000000, 0.000000000000000000, 0.000000000000000000, 0.000000000000000000, 0.000000000000000000, 0.000000000000000000 ) ;
#186 = SHAPE_DEFINITION_REPRESENTATION ( #184, #35 ) ;
#187 = EDGE_CURVE ( 'NONE', #77, #18, #16, .T. ) ;
#188 = EDGE_LOOP ( 'NONE', ( #180, #174, #215, #154 ) ) ;
#189 =( CONVERSION_BASED_UNIT ( 'INCH', #122 ) LENGTH_UNIT ( ) NAMED_UNIT ( #185 ) );
#190 = COLOUR_RGB ( '',1.000000000000000000, 1.000000000000000000, 1.000000000000000000 ) ;
#191 = UNCERTAINTY_MEASURE_WITH_UNIT (LENGTH_MEASURE( 1.000000000000000082E-05 ), #120, 'distance_accuracy_value', 'NONE');
#192 = FILL_AREA_STYLE ('',( #177 ) ) ;
#193 =( NAMED_UNIT ( * ) PLANE_ANGLE_UNIT ( ) SI_UNIT ( $, .RADIAN. ) );
#194 = CARTESIAN_POINT ( 'NONE',  ( 0.000000000000000000, 0.000000000000000000, -4.339299682018178368E-18 ) ) ;
#195 = PRESENTATION_LAYER_ASSIGNMENT (  '', '', ( #168 ) ) ;
#196 = CARTESIAN_POINT ( 'NONE',  ( 0.000000000000000000, 0.000000000000000000, 0.000000000000000000 ) ) ;
#197 = DIRECTION ( 'NONE',  ( -1.000000000000000000, 1.224646799147353207E-16, 0.000000000000000000 ) ) ;
#198 = MECHANICAL_DESIGN_GEOMETRIC_PRESENTATION_REPRESENTATION (  '', ( #30 ), #142 ) ;
#199 = DIRECTION ( 'NONE',  ( 0.000000000000000000, 0.000000000000000000, 1.000000000000000000 ) ) ;
#200 =( LENGTH_UNIT ( ) NAMED_UNIT ( * ) SI_UNIT ( $, .METRE. ) );
#201 = ORIENTED_EDGE ( 'NONE', *, *, #110, .F. ) ;
#202 = AXIS2_PLACEMENT_3D ( 'NONE', #3, #138, #126 ) ;
#203 = PRESENTATION_LAYER_ASSIGNMENT (  '', '', ( #127 ) ) ;
#204 = APPLICATION_CONTEXT ( 'automotive_design' ) ;
#205 = SURFACE_STYLE_FILL_AREA ( #131 ) ;
#206 =( LENGTH_UNIT ( ) NAMED_UNIT ( * ) SI_UNIT ( $, .METRE. ) );
#207 = TOROIDAL_SURFACE ( 'NONE', #49, 0.3110236220472441526, 0.03543307086614171098 ) ;
#208 = APPLICATION_PROTOCOL_DEFINITION ( 'draft international standard', 'automotive_design', 1998, #204 ) ;
#209 = ORIENTED_EDGE ( 'NONE', *, *, #187, .T. ) ;
#210 = AXIS2_PLACEMENT_3D ( 'NONE', #196, #25, #143 ) ;
#211 =( NAMED_UNIT ( * ) PLANE_ANGLE_UNIT ( ) SI_UNIT ( $, .RADIAN. ) );
#212 = CIRCLE ( 'NONE', #67, 0.03543307086614172485 ) ;
#213 =( NAMED_UNIT ( * ) SI_UNIT ( $, .STERADIAN. ) SOLID_ANGLE_UNIT ( ) );
#214 = DIRECTION ( 'NONE',  ( 0.000000000000000000, 0.000000000000000000, 1.000000000000000000 ) ) ;
#215 = ORIENTED_EDGE ( 'NONE', *, *, #182, .T. ) ;
#216 = LENGTH_MEASURE_WITH_UNIT ( LENGTH_MEASURE( 0.02539999999999999897 ), #200 );
#217 = FACE_OUTER_BOUND ( 'NONE', #75, .T. ) ;
#218 = UNCERTAINTY_MEASURE_WITH_UNIT (LENGTH_MEASURE( 1.000000000000000082E-05 ), #105, 'distance_accuracy_value', 'NONE');
#219 = FILL_AREA_STYLE_COLOUR ( '', #114 ) ;
#220 = CARTESIAN_POINT ( 'NONE',  ( 0.000000000000000000, 0.000000000000000000, 0.000000000000000000 ) ) ;
#221 =( NAMED_UNIT ( * ) PLANE_ANGLE_UNIT ( ) SI_UNIT ( $, .RADIAN. ) );
#222 = MECHANICAL_DESIGN_GEOMETRIC_PRESENTATION_REPRESENTATION (  '', ( #168 ), #239 ) ;
#223 = FILL_AREA_STYLE_COLOUR ( '', #190 ) ;
#224 = FACE_OUTER_BOUND ( 'NONE', #225, .T. ) ;
#225 = EDGE_LOOP ( 'NONE', ( #201, #136, #57, #209 ) ) ;
#226 = CARTESIAN_POINT ( 'NONE',  ( 0.3464566929133858775, 0.000000000000000000, 0.000000000000000000 ) ) ;
#227 = PRESENTATION_STYLE_ASSIGNMENT (( #34 ) ) ;
#228 = APPLICATION_CONTEXT ( 'automotive_design' ) ;
#229 = DIRECTION ( 'NONE',  ( 0.000000000000000000, 0.000000000000000000, -1.000000000000000000 ) ) ;
#230 = CIRCLE ( 'NONE', #111, 0.3464566929133858775 ) ;
#231 = DIMENSIONAL_EXPONENTS ( 1.000000000000000000, 0.000000000000000000, 0.000000000000000000, 0.000000000000000000, 0.000000000000000000, 0.000000000000000000, 0.000000000000000000 ) ;
#232 = SURFACE_STYLE_USAGE ( .BOTH. , #121 ) ;
#233 = ADVANCED_FACE ( 'NONE', ( #146 ), #207, .T. ) ;
#234 = AXIS2_PLACEMENT_3D ( 'NONE', #11, #108, #33 ) ;
#235 = UNCERTAINTY_MEASURE_WITH_UNIT (LENGTH_MEASURE( 1.000000000000000082E-05 ), #183, 'distance_accuracy_value', 'NONE');
#236 = AXIS2_PLACEMENT_3D ( 'NONE', #102, #157, #229 ) ;
#237 = SURFACE_STYLE_FILL_AREA ( #32 ) ;
#238 = CIRCLE ( 'NONE', #210, 0.3464566929133858775 ) ;
#239 =( GEOMETRIC_REPRESENTATION_CONTEXT ( 3 ) GLOBAL_UNCERTAINTY_ASSIGNED_CONTEXT ( ( #91 ) ) GLOBAL_UNIT_ASSIGNED_CONTEXT ( ( #97, #55, #153 ) ) REPRESENTATION_CONTEXT ( 'NONE', 'WORKASPACE' ) );
ENDSEC;
END-ISO-10303-21;
