ISO-10303-21;
HEADER;
FILE_DESCRIPTION (( 'STEP AP214' ),
    '1' );
FILE_NAME ('FMW42GG01_3D.step',
    '2024-09-23T17:02:22',
    ( '' ),
    ( '' ),
    'SwSTEP 2.0',
    'SolidWorks 2022',
    '' );
FILE_SCHEMA (( 'AUTOMOTIVE_DESIGN' ));
ENDSEC;

DATA;
#1 = DIRECTION ( 'NONE',  ( 0.000000000000000000, 0.000000000000000000, 1.000000000000000000 ) ) ;
#2 = LENGTH_MEASURE_WITH_UNIT ( LENGTH_MEASURE( 0.02539999999999999897 ), #186 );
#3 = AXIS2_PLACEMENT_3D ( 'NONE', #37, #1, #158 ) ;
#4 = MECHANICAL_DESIGN_GEOMETRIC_PRESENTATION_REPRESENTATION (  '', ( #81 ), #21 ) ;
#5 =( LENGTH_UNIT ( ) NAMED_UNIT ( * ) SI_UNIT ( $, .METRE. ) );
#6 =( LENGTH_UNIT ( ) NAMED_UNIT ( * ) SI_UNIT ( $, .METRE. ) );
#7 = EDGE_CURVE ( 'NONE', #30, #226, #92, .T. ) ;
#8 = PRODUCT_DEFINITION_CONTEXT ( 'detailed design', #20, 'design' ) ;
#9 = FILL_AREA_STYLE ('',( #101 ) ) ;
#10 = FILL_AREA_STYLE ('',( #118 ) ) ;
#11 = DIRECTION ( 'NONE',  ( 0.000000000000000000, 0.000000000000000000, 1.000000000000000000 ) ) ;
#12 = CARTESIAN_POINT ( 'NONE',  ( -0.3405511808661417783, 4.170549135935718854E-17, 0.000000000000000000 ) ) ;
#13 = CARTESIAN_POINT ( 'NONE',  ( -0.3051181100000000535, 3.736619167733901094E-17, -4.339299682018176828E-18 ) ) ;
#14 =( GEOMETRIC_REPRESENTATION_CONTEXT ( 3 ) GLOBAL_UNCERTAINTY_ASSIGNED_CONTEXT ( ( #202 ) ) GLOBAL_UNIT_ASSIGNED_CONTEXT ( ( #56, #156, #114 ) ) REPRESENTATION_CONTEXT ( 'NONE', 'WORKASPACE' ) );
#15 =( NAMED_UNIT ( * ) SI_UNIT ( $, .STERADIAN. ) SOLID_ANGLE_UNIT ( ) );
#16 =( CONVERSION_BASED_UNIT ( 'INCH', #178 ) LENGTH_UNIT ( ) NAMED_UNIT ( #96 ) );
#17 = ADVANCED_BREP_SHAPE_REPRESENTATION ( 'FMW42GG01_3D', ( #113, #33 ), #131 ) ;
#18 = FILL_AREA_STYLE_COLOUR ( '', #194 ) ;
#19 = STYLED_ITEM ( 'NONE', ( #164 ), #17 ) ;
#20 = APPLICATION_CONTEXT ( 'automotive_design' ) ;
#21 =( GEOMETRIC_REPRESENTATION_CONTEXT ( 3 ) GLOBAL_UNCERTAINTY_ASSIGNED_CONTEXT ( ( #223 ) ) GLOBAL_UNIT_ASSIGNED_CONTEXT ( ( #130, #220, #137 ) ) REPRESENTATION_CONTEXT ( 'NONE', 'WORKASPACE' ) );
#22 = ORIENTED_EDGE ( 'NONE', *, *, #40, .F. ) ;
#23 = PRESENTATION_STYLE_ASSIGNMENT (( #185 ) ) ;
#24 = DIMENSIONAL_EXPONENTS ( 1.000000000000000000, 0.000000000000000000, 0.000000000000000000, 0.000000000000000000, 0.000000000000000000, 0.000000000000000000, 0.000000000000000000 ) ;
#25 = DIRECTION ( 'NONE',  ( 1.000000000000000000, 0.000000000000000000, 0.000000000000000000 ) ) ;
#26 = PRESENTATION_STYLE_ASSIGNMENT (( #83 ) ) ;
#27 = PRESENTATION_LAYER_ASSIGNMENT (  '', '', ( #106 ) ) ;
#28 = AXIS2_PLACEMENT_3D ( 'NONE', #12, #134, #43 ) ;
#29 = DIRECTION ( 'NONE',  ( 0.000000000000000000, -1.000000000000000000, 0.000000000000000000 ) ) ;
#30 = VERTEX_POINT ( 'NONE', #13 ) ;
#31 = ORIENTED_EDGE ( 'NONE', *, *, #100, .T. ) ;
#32 = PRESENTATION_STYLE_ASSIGNMENT (( #88 ) ) ;
#33 = AXIS2_PLACEMENT_3D ( 'NONE', #180, #93, #129 ) ;
#34 = MECHANICAL_DESIGN_GEOMETRIC_PRESENTATION_REPRESENTATION (  '', ( #155 ), #14 ) ;
#35 = CARTESIAN_POINT ( 'NONE',  ( 0.000000000000000000, 0.000000000000000000, 0.000000000000000000 ) ) ;
#36 = CLOSED_SHELL ( 'NONE', ( #228, #161, #78, #216 ) ) ;
#37 = CARTESIAN_POINT ( 'NONE',  ( 0.000000000000000000, 0.000000000000000000, 0.000000000000000000 ) ) ;
#38 =( LENGTH_UNIT ( ) NAMED_UNIT ( * ) SI_UNIT ( $, .METRE. ) );
#39 = PRODUCT ( 'FMW42GG01_3D', 'FMW42GG01_3D', '', ( #76 ) ) ;
#40 = EDGE_CURVE ( 'NONE', #226, #73, #183, .T. ) ;
#41 =( NAMED_UNIT ( * ) SI_UNIT ( $, .STERADIAN. ) SOLID_ANGLE_UNIT ( ) );
#42 = UNCERTAINTY_MEASURE_WITH_UNIT (LENGTH_MEASURE( 1.000000000000000082E-05 ), #221, 'distance_accuracy_value', 'NONE');
#43 = DIRECTION ( 'NONE',  ( -1.000000000000000000, 1.224646799147353207E-16, 0.000000000000000000 ) ) ;
#44 = AXIS2_PLACEMENT_3D ( 'NONE', #82, #214, #61 ) ;
#45 = CARTESIAN_POINT ( 'NONE',  ( 0.000000000000000000, 0.000000000000000000, 0.000000000000000000 ) ) ;
#46 = PRODUCT_DEFINITION_FORMATION_WITH_SPECIFIED_SOURCE ( 'ANY', '', #39, .NOT_KNOWN. ) ;
#47 = FACE_OUTER_BOUND ( 'NONE', #58, .T. ) ;
#48 = MECHANICAL_DESIGN_GEOMETRIC_PRESENTATION_REPRESENTATION (  '', ( #150 ), #217 ) ;
#49 = ORIENTED_EDGE ( 'NONE', *, *, #54, .T. ) ;
#50 = DIRECTION ( 'NONE',  ( 1.224646799147353207E-16, 1.000000000000000000, -0.000000000000000000 ) ) ;
#51 = FACE_OUTER_BOUND ( 'NONE', #237, .T. ) ;
#52 =( NAMED_UNIT ( * ) PLANE_ANGLE_UNIT ( ) SI_UNIT ( $, .RADIAN. ) );
#53 =( GEOMETRIC_REPRESENTATION_CONTEXT ( 3 ) GLOBAL_UNCERTAINTY_ASSIGNED_CONTEXT ( ( #192 ) ) GLOBAL_UNIT_ASSIGNED_CONTEXT ( ( #167, #142, #108 ) ) REPRESENTATION_CONTEXT ( 'NONE', 'WORKASPACE' ) );
#54 = EDGE_CURVE ( 'NONE', #30, #89, #224, .T. ) ;
#55 = CIRCLE ( 'NONE', #227, 0.3759842517322835032 ) ;
#56 =( CONVERSION_BASED_UNIT ( 'INCH', #80 ) LENGTH_UNIT ( ) NAMED_UNIT ( #24 ) );
#57 = SURFACE_SIDE_STYLE ('',( #225 ) ) ;
#58 = EDGE_LOOP ( 'NONE', ( #184, #72, #112, #139 ) ) ;
#59 = COLOUR_RGB ( '',0.7529411764705882248, 0.000000000000000000, 0.000000000000000000 ) ;
#60 = FACE_OUTER_BOUND ( 'NONE', #70, .T. ) ;
#61 = DIRECTION ( 'NONE',  ( 1.000000000000000000, 0.000000000000000000, 0.000000000000000000 ) ) ;
#62 = DIMENSIONAL_EXPONENTS ( 1.000000000000000000, 0.000000000000000000, 0.000000000000000000, 0.000000000000000000, 0.000000000000000000, 0.000000000000000000, 0.000000000000000000 ) ;
#63 = SURFACE_SIDE_STYLE ('',( #103 ) ) ;
#64 = PRESENTATION_LAYER_ASSIGNMENT (  '', '', ( #150 ) ) ;
#65 =( NAMED_UNIT ( * ) PLANE_ANGLE_UNIT ( ) SI_UNIT ( $, .RADIAN. ) );
#66 = CARTESIAN_POINT ( 'NONE',  ( 0.3405511808661417783, 0.000000000000000000, 0.000000000000000000 ) ) ;
#67 = DIRECTION ( 'NONE',  ( 1.000000000000000000, 0.000000000000000000, 0.000000000000000000 ) ) ;
#68 = AXIS2_PLACEMENT_3D ( 'NONE', #35, #196, #236 ) ;
#69 = FILL_AREA_STYLE ('',( #233 ) ) ;
#70 = EDGE_LOOP ( 'NONE', ( #144, #22, #126, #49 ) ) ;
#71 =( NAMED_UNIT ( * ) PLANE_ANGLE_UNIT ( ) SI_UNIT ( $, .RADIAN. ) );
#72 = ORIENTED_EDGE ( 'NONE', *, *, #54, .F. ) ;
#73 = VERTEX_POINT ( 'NONE', #132 ) ;
#74 =( LENGTH_UNIT ( ) NAMED_UNIT ( * ) SI_UNIT ( $, .METRE. ) );
#75 =( GEOMETRIC_REPRESENTATION_CONTEXT ( 3 ) GLOBAL_UNCERTAINTY_ASSIGNED_CONTEXT ( ( #42 ) ) GLOBAL_UNIT_ASSIGNED_CONTEXT ( ( #221, #86, #127 ) ) REPRESENTATION_CONTEXT ( 'NONE', 'WORKASPACE' ) );
#76 = PRODUCT_CONTEXT ( 'NONE', #85, 'mechanical' ) ;
#77 = CIRCLE ( 'NONE', #109, 0.03543307086614171098 ) ;
#78 = ADVANCED_FACE ( 'NONE', ( #60 ), #222, .T. ) ;
#79 = SURFACE_STYLE_USAGE ( .BOTH. , #229 ) ;
#80 = LENGTH_MEASURE_WITH_UNIT ( LENGTH_MEASURE( 0.02539999999999999897 ), #6 );
#81 = STYLED_ITEM ( 'NONE', ( #23 ), #78 ) ;
#82 = CARTESIAN_POINT ( 'NONE',  ( 0.000000000000000000, 0.000000000000000000, -4.339299682018178368E-18 ) ) ;
#83 = SURFACE_STYLE_USAGE ( .BOTH. , #99 ) ;
#84 = CARTESIAN_POINT ( 'NONE',  ( 0.000000000000000000, 0.000000000000000000, 0.000000000000000000 ) ) ;
#85 = APPLICATION_CONTEXT ( 'automotive_design' ) ;
#86 =( NAMED_UNIT ( * ) PLANE_ANGLE_UNIT ( ) SI_UNIT ( $, .RADIAN. ) );
#87 = CARTESIAN_POINT ( 'NONE',  ( 0.3405511808661417783, 0.000000000000000000, 0.000000000000000000 ) ) ;
#88 = SURFACE_STYLE_USAGE ( .BOTH. , #138 ) ;
#89 = VERTEX_POINT ( 'NONE', #190 ) ;
#90 = LENGTH_MEASURE_WITH_UNIT ( LENGTH_MEASURE( 0.02539999999999999897 ), #38 );
#91 = APPLICATION_PROTOCOL_DEFINITION ( 'draft international standard', 'automotive_design', 1998, #85 ) ;
#92 = CIRCLE ( 'NONE', #173, 0.3051181100000000535 ) ;
#93 = DIRECTION ( 'NONE',  ( 0.000000000000000000, 0.000000000000000000, 1.000000000000000000 ) ) ;
#94 = COLOUR_RGB ( '',0.7529411764705882248, 0.000000000000000000, 0.000000000000000000 ) ;
#95 = SURFACE_SIDE_STYLE ('',( #203 ) ) ;
#96 = DIMENSIONAL_EXPONENTS ( 1.000000000000000000, 0.000000000000000000, 0.000000000000000000, 0.000000000000000000, 0.000000000000000000, 0.000000000000000000, 0.000000000000000000 ) ;
#97 = DIRECTION ( 'NONE',  ( 1.000000000000000000, 0.000000000000000000, 0.000000000000000000 ) ) ;
#98 = PRESENTATION_STYLE_ASSIGNMENT (( #175 ) ) ;
#99 = SURFACE_SIDE_STYLE ('',( #232 ) ) ;
#100 = EDGE_CURVE ( 'NONE', #89, #73, #55, .T. ) ;
#101 = FILL_AREA_STYLE_COLOUR ( '', #163 ) ;
#102 = PRODUCT_DEFINITION_SHAPE ( 'NONE', 'NONE',  #219 ) ;
#103 = SURFACE_STYLE_FILL_AREA ( #120 ) ;
#104 = ORIENTED_EDGE ( 'NONE', *, *, #165, .F. ) ;
#105 = CARTESIAN_POINT ( 'NONE',  ( 0.000000000000000000, 0.000000000000000000, -4.339299682018178368E-18 ) ) ;
#106 = STYLED_ITEM ( 'NONE', ( #98 ), #216 ) ;
#107 = PRESENTATION_LAYER_ASSIGNMENT (  '', '', ( #81 ) ) ;
#108 =( NAMED_UNIT ( * ) SI_UNIT ( $, .STERADIAN. ) SOLID_ANGLE_UNIT ( ) );
#109 = AXIS2_PLACEMENT_3D ( 'NONE', #66, #29, #207 ) ;
#110 = APPLICATION_PROTOCOL_DEFINITION ( 'draft international standard', 'automotive_design', 1998, #20 ) ;
#111 = ORIENTED_EDGE ( 'NONE', *, *, #181, .F. ) ;
#112 = ORIENTED_EDGE ( 'NONE', *, *, #7, .T. ) ;
#113 = MANIFOLD_SOLID_BREP ( 'Sweep1', #36 ) ;
#114 =( NAMED_UNIT ( * ) SI_UNIT ( $, .STERADIAN. ) SOLID_ANGLE_UNIT ( ) );
#115 = AXIS2_PLACEMENT_3D ( 'NONE', #84, #154, #123 ) ;
#116 = COLOUR_RGB ( '',1.000000000000000000, 1.000000000000000000, 1.000000000000000000 ) ;
#117 = DIRECTION ( 'NONE',  ( 0.000000000000000000, 0.000000000000000000, 1.000000000000000000 ) ) ;
#118 = FILL_AREA_STYLE_COLOUR ( '', #116 ) ;
#119 = PRESENTATION_STYLE_ASSIGNMENT (( #79 ) ) ;
#120 = FILL_AREA_STYLE ('',( #209 ) ) ;
#121 = PRESENTATION_LAYER_ASSIGNMENT (  '', '', ( #155 ) ) ;
#122 = ORIENTED_EDGE ( 'NONE', *, *, #7, .F. ) ;
#123 = DIRECTION ( 'NONE',  ( 1.000000000000000000, 0.000000000000000000, 0.000000000000000000 ) ) ;
#124 = ORIENTED_EDGE ( 'NONE', *, *, #125, .F. ) ;
#125 = EDGE_CURVE ( 'NONE', #89, #30, #133, .T. ) ;
#126 = ORIENTED_EDGE ( 'NONE', *, *, #165, .T. ) ;
#127 =( NAMED_UNIT ( * ) SI_UNIT ( $, .STERADIAN. ) SOLID_ANGLE_UNIT ( ) );
#128 = FILL_AREA_STYLE ('',( #18 ) ) ;
#129 = DIRECTION ( 'NONE',  ( 1.000000000000000000, 0.000000000000000000, 0.000000000000000000 ) ) ;
#130 =( CONVERSION_BASED_UNIT ( 'INCH', #2 ) LENGTH_UNIT ( ) NAMED_UNIT ( #145 ) );
#131 =( GEOMETRIC_REPRESENTATION_CONTEXT ( 3 ) GLOBAL_UNCERTAINTY_ASSIGNED_CONTEXT ( ( #231 ) ) GLOBAL_UNIT_ASSIGNED_CONTEXT ( ( #16, #71, #41 ) ) REPRESENTATION_CONTEXT ( 'NONE', 'WORKASPACE' ) );
#132 = CARTESIAN_POINT ( 'NONE',  ( 0.3759842517322835032, 0.000000000000000000, 0.000000000000000000 ) ) ;
#133 = CIRCLE ( 'NONE', #28, 0.03543307086614172485 ) ;
#134 = DIRECTION ( 'NONE',  ( 1.224646799147353207E-16, 1.000000000000000000, -0.000000000000000000 ) ) ;
#135 =( NAMED_UNIT ( * ) SI_UNIT ( $, .STERADIAN. ) SOLID_ANGLE_UNIT ( ) );
#136 = CARTESIAN_POINT ( 'NONE',  ( 0.000000000000000000, 0.000000000000000000, 0.000000000000000000 ) ) ;
#137 =( NAMED_UNIT ( * ) SI_UNIT ( $, .STERADIAN. ) SOLID_ANGLE_UNIT ( ) );
#138 = SURFACE_SIDE_STYLE ('',( #198 ) ) ;
#139 = ORIENTED_EDGE ( 'NONE', *, *, #40, .T. ) ;
#140 = DIRECTION ( 'NONE',  ( 1.000000000000000000, 0.000000000000000000, 0.000000000000000000 ) ) ;
#141 = STYLED_ITEM ( 'NONE', ( #32 ), #228 ) ;
#142 =( NAMED_UNIT ( * ) PLANE_ANGLE_UNIT ( ) SI_UNIT ( $, .RADIAN. ) );
#143 = SURFACE_STYLE_USAGE ( .BOTH. , #95 ) ;
#144 = ORIENTED_EDGE ( 'NONE', *, *, #199, .F. ) ;
#145 = DIMENSIONAL_EXPONENTS ( 1.000000000000000000, 0.000000000000000000, 0.000000000000000000, 0.000000000000000000, 0.000000000000000000, 0.000000000000000000, 0.000000000000000000 ) ;
#146 = DIRECTION ( 'NONE',  ( -1.000000000000000000, 1.224646799147353207E-16, 0.000000000000000000 ) ) ;
#147 = ORIENTED_EDGE ( 'NONE', *, *, #125, .T. ) ;
#148 = MECHANICAL_DESIGN_GEOMETRIC_PRESENTATION_REPRESENTATION (  '', ( #19 ), #53 ) ;
#149 = FILL_AREA_STYLE ('',( #205 ) ) ;
#150 = STYLED_ITEM ( 'NONE', ( #119 ), #161 ) ;
#151 = DIMENSIONAL_EXPONENTS ( 1.000000000000000000, 0.000000000000000000, 0.000000000000000000, 0.000000000000000000, 0.000000000000000000, 0.000000000000000000, 0.000000000000000000 ) ;
#152 = SURFACE_STYLE_FILL_AREA ( #9 ) ;
#153 = MECHANICAL_DESIGN_GEOMETRIC_PRESENTATION_REPRESENTATION (  '', ( #141 ), #75 ) ;
#154 = DIRECTION ( 'NONE',  ( 0.000000000000000000, 0.000000000000000000, 1.000000000000000000 ) ) ;
#155 = STYLED_ITEM ( 'NONE', ( #26 ), #113 ) ;
#156 =( NAMED_UNIT ( * ) PLANE_ANGLE_UNIT ( ) SI_UNIT ( $, .RADIAN. ) );
#157 = LENGTH_MEASURE_WITH_UNIT ( LENGTH_MEASURE( 0.02539999999999999897 ), #5 );
#158 = DIRECTION ( 'NONE',  ( 1.000000000000000000, 0.000000000000000000, 0.000000000000000000 ) ) ;
#159 = COLOUR_RGB ( '',0.7529411764705882248, 0.000000000000000000, 0.000000000000000000 ) ;
#160 = DIRECTION ( 'NONE',  ( 0.000000000000000000, -1.000000000000000000, 0.000000000000000000 ) ) ;
#161 = ADVANCED_FACE ( 'NONE', ( #174 ), #201, .T. ) ;
#162 = SHAPE_DEFINITION_REPRESENTATION ( #102, #17 ) ;
#163 = COLOUR_RGB ( '',0.7529411764705882248, 0.000000000000000000, 0.000000000000000000 ) ;
#164 = PRESENTATION_STYLE_ASSIGNMENT (( #143 ) ) ;
#165 = EDGE_CURVE ( 'NONE', #226, #30, #204, .T. ) ;
#166 = PRESENTATION_LAYER_ASSIGNMENT (  '', '', ( #19 ) ) ;
#167 =( CONVERSION_BASED_UNIT ( 'INCH', #90 ) LENGTH_UNIT ( ) NAMED_UNIT ( #151 ) );
#168 = CIRCLE ( 'NONE', #230, 0.3759842517322835032 ) ;
#169 =( GEOMETRIC_REPRESENTATION_CONTEXT ( 3 ) GLOBAL_UNCERTAINTY_ASSIGNED_CONTEXT ( ( #211 ) ) GLOBAL_UNIT_ASSIGNED_CONTEXT ( ( #191, #52, #15 ) ) REPRESENTATION_CONTEXT ( 'NONE', 'WORKASPACE' ) );
#170 = EDGE_LOOP ( 'NONE', ( #111, #234, #147, #104 ) ) ;
#171 = LENGTH_MEASURE_WITH_UNIT ( LENGTH_MEASURE( 0.02539999999999999897 ), #187 );
#172 = PRESENTATION_LAYER_ASSIGNMENT (  '', '', ( #141 ) ) ;
#173 = AXIS2_PLACEMENT_3D ( 'NONE', #105, #197, #140 ) ;
#174 = FACE_OUTER_BOUND ( 'NONE', #170, .T. ) ;
#175 = SURFACE_STYLE_USAGE ( .BOTH. , #63 ) ;
#176 = LENGTH_MEASURE_WITH_UNIT ( LENGTH_MEASURE( 0.02539999999999999897 ), #74 );
#177 = ORIENTED_EDGE ( 'NONE', *, *, #181, .T. ) ;
#178 = LENGTH_MEASURE_WITH_UNIT ( LENGTH_MEASURE( 0.02539999999999999897 ), #200 );
#179 = AXIS2_PLACEMENT_3D ( 'NONE', #45, #212, #25 ) ;
#180 = CARTESIAN_POINT ( 'NONE',  ( 0.000000000000000000, 0.000000000000000000, 0.000000000000000000 ) ) ;
#181 = EDGE_CURVE ( 'NONE', #73, #226, #77, .T. ) ;
#182 = TOROIDAL_SURFACE ( 'NONE', #68, 0.3405511808661417783, 0.03543307086614171098 ) ;
#183 = CIRCLE ( 'NONE', #210, 0.03543307086614171098 ) ;
#184 = ORIENTED_EDGE ( 'NONE', *, *, #100, .F. ) ;
#185 = SURFACE_STYLE_USAGE ( .BOTH. , #57 ) ;
#186 =( LENGTH_UNIT ( ) NAMED_UNIT ( * ) SI_UNIT ( $, .METRE. ) );
#187 =( LENGTH_UNIT ( ) NAMED_UNIT ( * ) SI_UNIT ( $, .METRE. ) );
#188 = DIMENSIONAL_EXPONENTS ( 1.000000000000000000, 0.000000000000000000, 0.000000000000000000, 0.000000000000000000, 0.000000000000000000, 0.000000000000000000, 0.000000000000000000 ) ;
#189 =( CONVERSION_BASED_UNIT ( 'INCH', #157 ) LENGTH_UNIT ( ) NAMED_UNIT ( #62 ) );
#190 = CARTESIAN_POINT ( 'NONE',  ( -0.3759842517322835032, 4.604479104137537230E-17, 0.000000000000000000 ) ) ;
#191 =( CONVERSION_BASED_UNIT ( 'INCH', #171 ) LENGTH_UNIT ( ) NAMED_UNIT ( #208 ) );
#192 = UNCERTAINTY_MEASURE_WITH_UNIT (LENGTH_MEASURE( 1.000000000000000082E-05 ), #167, 'distance_accuracy_value', 'NONE');
#193 = UNCERTAINTY_MEASURE_WITH_UNIT (LENGTH_MEASURE( 1.000000000000000082E-05 ), #189, 'distance_accuracy_value', 'NONE');
#194 = COLOUR_RGB ( '',1.000000000000000000, 1.000000000000000000, 1.000000000000000000 ) ;
#195 = CARTESIAN_POINT ( 'NONE',  ( 0.3051181100000000535, 0.000000000000000000, -4.339299682018176828E-18 ) ) ;
#196 = DIRECTION ( 'NONE',  ( 0.000000000000000000, 0.000000000000000000, 1.000000000000000000 ) ) ;
#197 = DIRECTION ( 'NONE',  ( 0.000000000000000000, 0.000000000000000000, 1.000000000000000000 ) ) ;
#198 = SURFACE_STYLE_FILL_AREA ( #69 ) ;
#199 = EDGE_CURVE ( 'NONE', #73, #89, #168, .T. ) ;
#200 =( LENGTH_UNIT ( ) NAMED_UNIT ( * ) SI_UNIT ( $, .METRE. ) );
#201 = TOROIDAL_SURFACE ( 'NONE', #179, 0.3405511808661417783, 0.03543307086614171098 ) ;
#202 = UNCERTAINTY_MEASURE_WITH_UNIT (LENGTH_MEASURE( 1.000000000000000082E-05 ), #56, 'distance_accuracy_value', 'NONE');
#203 = SURFACE_STYLE_FILL_AREA ( #128 ) ;
#204 = CIRCLE ( 'NONE', #44, 0.3051181100000000535 ) ;
#205 = FILL_AREA_STYLE_COLOUR ( '', #59 ) ;
#206 = AXIS2_PLACEMENT_3D ( 'NONE', #218, #50, #146 ) ;
#207 = DIRECTION ( 'NONE',  ( 0.000000000000000000, 0.000000000000000000, -1.000000000000000000 ) ) ;
#208 = DIMENSIONAL_EXPONENTS ( 1.000000000000000000, 0.000000000000000000, 0.000000000000000000, 0.000000000000000000, 0.000000000000000000, 0.000000000000000000, 0.000000000000000000 ) ;
#209 = FILL_AREA_STYLE_COLOUR ( '', #94 ) ;
#210 = AXIS2_PLACEMENT_3D ( 'NONE', #87, #160, #238 ) ;
#211 = UNCERTAINTY_MEASURE_WITH_UNIT (LENGTH_MEASURE( 1.000000000000000082E-05 ), #191, 'distance_accuracy_value', 'NONE');
#212 = DIRECTION ( 'NONE',  ( 0.000000000000000000, 0.000000000000000000, 1.000000000000000000 ) ) ;
#213 = CARTESIAN_POINT ( 'NONE',  ( 0.000000000000000000, 0.000000000000000000, 0.000000000000000000 ) ) ;
#214 = DIRECTION ( 'NONE',  ( 0.000000000000000000, 0.000000000000000000, 1.000000000000000000 ) ) ;
#215 = TOROIDAL_SURFACE ( 'NONE', #3, 0.3405511808661417783, 0.03543307086614171098 ) ;
#216 = ADVANCED_FACE ( 'NONE', ( #47 ), #215, .T. ) ;
#217 =( GEOMETRIC_REPRESENTATION_CONTEXT ( 3 ) GLOBAL_UNCERTAINTY_ASSIGNED_CONTEXT ( ( #193 ) ) GLOBAL_UNIT_ASSIGNED_CONTEXT ( ( #189, #65, #135 ) ) REPRESENTATION_CONTEXT ( 'NONE', 'WORKASPACE' ) );
#218 = CARTESIAN_POINT ( 'NONE',  ( -0.3405511808661417783, 4.170549135935718854E-17, 0.000000000000000000 ) ) ;
#219 = PRODUCT_DEFINITION ( 'UNKNOWN', '', #46, #8 ) ;
#220 =( NAMED_UNIT ( * ) PLANE_ANGLE_UNIT ( ) SI_UNIT ( $, .RADIAN. ) );
#221 =( CONVERSION_BASED_UNIT ( 'INCH', #176 ) LENGTH_UNIT ( ) NAMED_UNIT ( #188 ) );
#222 = TOROIDAL_SURFACE ( 'NONE', #115, 0.3405511808661417783, 0.03543307086614171098 ) ;
#223 = UNCERTAINTY_MEASURE_WITH_UNIT (LENGTH_MEASURE( 1.000000000000000082E-05 ), #130, 'distance_accuracy_value', 'NONE');
#224 = CIRCLE ( 'NONE', #206, 0.03543307086614172485 ) ;
#225 = SURFACE_STYLE_FILL_AREA ( #149 ) ;
#226 = VERTEX_POINT ( 'NONE', #195 ) ;
#227 = AXIS2_PLACEMENT_3D ( 'NONE', #213, #11, #67 ) ;
#228 = ADVANCED_FACE ( 'NONE', ( #51 ), #182, .T. ) ;
#229 = SURFACE_SIDE_STYLE ('',( #152 ) ) ;
#230 = AXIS2_PLACEMENT_3D ( 'NONE', #136, #117, #97 ) ;
#231 = UNCERTAINTY_MEASURE_WITH_UNIT (LENGTH_MEASURE( 1.000000000000000082E-05 ), #16, 'distance_accuracy_value', 'NONE');
#232 = SURFACE_STYLE_FILL_AREA ( #10 ) ;
#233 = FILL_AREA_STYLE_COLOUR ( '', #159 ) ;
#234 = ORIENTED_EDGE ( 'NONE', *, *, #199, .T. ) ;
#235 = MECHANICAL_DESIGN_GEOMETRIC_PRESENTATION_REPRESENTATION (  '', ( #106 ), #169 ) ;
#236 = DIRECTION ( 'NONE',  ( 1.000000000000000000, 0.000000000000000000, 0.000000000000000000 ) ) ;
#237 = EDGE_LOOP ( 'NONE', ( #124, #31, #177, #122 ) ) ;
#238 = DIRECTION ( 'NONE',  ( 0.000000000000000000, 0.000000000000000000, -1.000000000000000000 ) ) ;
#239 = PRODUCT_RELATED_PRODUCT_CATEGORY ( 'part', '', ( #39 ) ) ;
ENDSEC;
END-ISO-10303-21;
