ISO-10303-21;
HEADER;
FILE_DESCRIPTION (( 'STEP AP214' ),
    '1' );
FILE_NAME ('FMW75GG01_3D.step',
    '2024-09-23T17:02:20',
    ( '' ),
    ( '' ),
    'SwSTEP 2.0',
    'SolidWorks 2022',
    '' );
FILE_SCHEMA (( 'AUTOMOTIVE_DESIGN' ));
ENDSEC;

DATA;
#1 =( LENGTH_UNIT ( ) NAMED_UNIT ( * ) SI_UNIT ( $, .METRE. ) );
#2 = LENGTH_MEASURE_WITH_UNIT ( LENGTH_MEASURE( 0.02539999999999999897 ), #33 );
#3 = TOROIDAL_SURFACE ( 'NONE', #101, 0.6023622047244094890, 0.05118110236220464737 ) ;
#4 = STYLED_ITEM ( 'NONE', ( #60 ), #158 ) ;
#5 = ORIENTED_EDGE ( 'NONE', *, *, #145, .F. ) ;
#6 = PRESENTATION_STYLE_ASSIGNMENT (( #29 ) ) ;
#7 = FILL_AREA_STYLE_COLOUR ( '', #42 ) ;
#8 = ORIENTED_EDGE ( 'NONE', *, *, #137, .T. ) ;
#9 = ORIENTED_EDGE ( 'NONE', *, *, #134, .T. ) ;
#10 = FACE_OUTER_BOUND ( 'NONE', #25, .T. ) ;
#11 = SURFACE_STYLE_USAGE ( .BOTH. , #35 ) ;
#12 = AXIS2_PLACEMENT_3D ( 'NONE', #104, #50, #135 ) ;
#13 = SHAPE_DEFINITION_REPRESENTATION ( #61, #158 ) ;
#14 = TOROIDAL_SURFACE ( 'NONE', #96, 0.6023622047244094890, 0.05118110236220464737 ) ;
#15 = PRESENTATION_LAYER_ASSIGNMENT (  '', '', ( #4 ) ) ;
#16 = CARTESIAN_POINT ( 'NONE',  ( 0.5511811023622048555, 0.000000000000000000, -6.267877318470698664E-18 ) ) ;
#17 = ADVANCED_FACE ( 'NONE', ( #166 ), #14, .T. ) ;
#18 = EDGE_LOOP ( 'NONE', ( #160, #142, #102, #32 ) ) ;
#19 = CIRCLE ( 'NONE', #117, 0.05118110236220468900 ) ;
#20 = CARTESIAN_POINT ( 'NONE',  ( 0.000000000000000000, 0.000000000000000000, -6.267877318470695582E-18 ) ) ;
#21 =( LENGTH_UNIT ( ) NAMED_UNIT ( * ) SI_UNIT ( $, .METRE. ) );
#22 = APPLICATION_PROTOCOL_DEFINITION ( 'draft international standard', 'automotive_design', 1998, #167 ) ;
#23 = FACE_OUTER_BOUND ( 'NONE', #115, .T. ) ;
#24 = DIRECTION ( 'NONE',  ( 0.000000000000000000, 0.000000000000000000, 1.000000000000000000 ) ) ;
#25 = EDGE_LOOP ( 'NONE', ( #43, #9, #62, #146 ) ) ;
#26 = APPLICATION_CONTEXT ( 'automotive_design' ) ;
#27 = ORIENTED_EDGE ( 'NONE', *, *, #53, .F. ) ;
#28 = AXIS2_PLACEMENT_3D ( 'NONE', #94, #118, #152 ) ;
#29 = SURFACE_STYLE_USAGE ( .BOTH. , #144 ) ;
#30 = CARTESIAN_POINT ( 'NONE',  ( 0.000000000000000000, 0.000000000000000000, 0.000000000000000000 ) ) ;
#31 = DIRECTION ( 'NONE',  ( 0.000000000000000000, -1.000000000000000000, 0.000000000000000000 ) ) ;
#32 = ORIENTED_EDGE ( 'NONE', *, *, #53, .T. ) ;
#33 =( LENGTH_UNIT ( ) NAMED_UNIT ( * ) SI_UNIT ( $, .METRE. ) );
#34 =( GEOMETRIC_REPRESENTATION_CONTEXT ( 3 ) GLOBAL_UNCERTAINTY_ASSIGNED_CONTEXT ( ( #38 ) ) GLOBAL_UNIT_ASSIGNED_CONTEXT ( ( #41, #141, #69 ) ) REPRESENTATION_CONTEXT ( 'NONE', 'WORKASPACE' ) );
#35 = SURFACE_SIDE_STYLE ('',( #121 ) ) ;
#36 = FILL_AREA_STYLE ('',( #150 ) ) ;
#37 = CARTESIAN_POINT ( 'NONE',  ( -0.6023622047244094890, 7.376809459430907463E-17, 0.000000000000000000 ) ) ;
#38 = UNCERTAINTY_MEASURE_WITH_UNIT (LENGTH_MEASURE( 1.000000000000000082E-05 ), #41, 'distance_accuracy_value', 'NONE');
#39 = DIRECTION ( 'NONE',  ( 1.000000000000000000, 0.000000000000000000, 0.000000000000000000 ) ) ;
#40 = DIRECTION ( 'NONE',  ( 1.000000000000000000, 0.000000000000000000, 0.000000000000000000 ) ) ;
#41 =( CONVERSION_BASED_UNIT ( 'INCH', #44 ) LENGTH_UNIT ( ) NAMED_UNIT ( #154 ) );
#42 = COLOUR_RGB ( '',1.000000000000000000, 1.000000000000000000, 1.000000000000000000 ) ;
#43 = ORIENTED_EDGE ( 'NONE', *, *, #151, .F. ) ;
#44 = LENGTH_MEASURE_WITH_UNIT ( LENGTH_MEASURE( 0.02539999999999999897 ), #21 );
#45 =( CONVERSION_BASED_UNIT ( 'INCH', #2 ) LENGTH_UNIT ( ) NAMED_UNIT ( #54 ) );
#46 = CARTESIAN_POINT ( 'NONE',  ( 0.6023622047244094890, 0.000000000000000000, 0.000000000000000000 ) ) ;
#47 = DIRECTION ( 'NONE',  ( 1.224646799147353207E-16, 1.000000000000000000, -0.000000000000000000 ) ) ;
#48 = DIRECTION ( 'NONE',  ( 1.000000000000000000, 0.000000000000000000, 0.000000000000000000 ) ) ;
#49 = FACE_OUTER_BOUND ( 'NONE', #55, .T. ) ;
#50 = DIRECTION ( 'NONE',  ( 0.000000000000000000, -1.000000000000000000, 0.000000000000000000 ) ) ;
#51 = CIRCLE ( 'NONE', #68, 0.5511811023622048555 ) ;
#52 = ADVANCED_FACE ( 'NONE', ( #49 ), #78, .T. ) ;
#53 = EDGE_CURVE ( 'NONE', #88, #70, #76, .T. ) ;
#54 = DIMENSIONAL_EXPONENTS ( 1.000000000000000000, 0.000000000000000000, 0.000000000000000000, 0.000000000000000000, 0.000000000000000000, 0.000000000000000000, 0.000000000000000000 ) ;
#55 = EDGE_LOOP ( 'NONE', ( #125, #27, #100, #8 ) ) ;
#56 = FILL_AREA_STYLE ('',( #7 ) ) ;
#57 = CIRCLE ( 'NONE', #12, 0.05118110236220464737 ) ;
#58 = ADVANCED_FACE ( 'NONE', ( #23 ), #3, .T. ) ;
#59 = ORIENTED_EDGE ( 'NONE', *, *, #151, .T. ) ;
#60 = PRESENTATION_STYLE_ASSIGNMENT (( #11 ) ) ;
#61 = PRODUCT_DEFINITION_SHAPE ( 'NONE', 'NONE',  #91 ) ;
#62 = ORIENTED_EDGE ( 'NONE', *, *, #126, .T. ) ;
#63 = CARTESIAN_POINT ( 'NONE',  ( 0.000000000000000000, 0.000000000000000000, 0.000000000000000000 ) ) ;
#64 = LENGTH_MEASURE_WITH_UNIT ( LENGTH_MEASURE( 0.02539999999999999897 ), #1 );
#65 = CIRCLE ( 'NONE', #159, 0.6535433070866142335 ) ;
#66 = DIRECTION ( 'NONE',  ( 1.000000000000000000, 0.000000000000000000, 0.000000000000000000 ) ) ;
#67 = STYLED_ITEM ( 'NONE', ( #6 ), #127 ) ;
#68 = AXIS2_PLACEMENT_3D ( 'NONE', #129, #155, #39 ) ;
#69 =( NAMED_UNIT ( * ) SI_UNIT ( $, .STERADIAN. ) SOLID_ANGLE_UNIT ( ) );
#70 = VERTEX_POINT ( 'NONE', #122 ) ;
#71 = DIRECTION ( 'NONE',  ( 1.000000000000000000, 0.000000000000000000, 0.000000000000000000 ) ) ;
#72 = EDGE_CURVE ( 'NONE', #85, #70, #119, .T. ) ;
#73 = DIRECTION ( 'NONE',  ( -1.000000000000000000, 1.224646799147351975E-16, 0.000000000000000000 ) ) ;
#74 = ORIENTED_EDGE ( 'NONE', *, *, #126, .F. ) ;
#75 = APPLICATION_PROTOCOL_DEFINITION ( 'draft international standard', 'automotive_design', 1998, #26 ) ;
#76 = CIRCLE ( 'NONE', #143, 0.05118110236220464737 ) ;
#77 = CARTESIAN_POINT ( 'NONE',  ( 0.000000000000000000, 0.000000000000000000, 0.000000000000000000 ) ) ;
#78 = TOROIDAL_SURFACE ( 'NONE', #79, 0.6023622047244094890, 0.05118110236220464737 ) ;
#79 = AXIS2_PLACEMENT_3D ( 'NONE', #63, #163, #48 ) ;
#80 = MECHANICAL_DESIGN_GEOMETRIC_PRESENTATION_REPRESENTATION (  '', ( #4 ), #99 ) ;
#81 = EDGE_CURVE ( 'NONE', #88, #120, #51, .T. ) ;
#82 = COLOUR_RGB ( '',1.000000000000000000, 1.000000000000000000, 1.000000000000000000 ) ;
#83 = PRODUCT_RELATED_PRODUCT_CATEGORY ( 'part', '', ( #123 ) ) ;
#84 = PRODUCT_DEFINITION_CONTEXT ( 'detailed design', #26, 'design' ) ;
#85 = VERTEX_POINT ( 'NONE', #140 ) ;
#86 = SURFACE_STYLE_FILL_AREA ( #56 ) ;
#87 = AXIS2_PLACEMENT_3D ( 'NONE', #97, #110, #40 ) ;
#88 = VERTEX_POINT ( 'NONE', #16 ) ;
#89 = DIRECTION ( 'NONE',  ( 1.000000000000000000, 0.000000000000000000, 0.000000000000000000 ) ) ;
#90 = DIRECTION ( 'NONE',  ( 0.000000000000000000, 0.000000000000000000, -1.000000000000000000 ) ) ;
#91 = PRODUCT_DEFINITION ( 'UNKNOWN', '', #93, #84 ) ;
#92 = DIRECTION ( 'NONE',  ( 1.000000000000000000, 0.000000000000000000, 0.000000000000000000 ) ) ;
#93 = PRODUCT_DEFINITION_FORMATION_WITH_SPECIFIED_SOURCE ( 'ANY', '', #123, .NOT_KNOWN. ) ;
#94 = CARTESIAN_POINT ( 'NONE',  ( 0.000000000000000000, 0.000000000000000000, 0.000000000000000000 ) ) ;
#95 = MECHANICAL_DESIGN_GEOMETRIC_PRESENTATION_REPRESENTATION (  '', ( #67 ), #34 ) ;
#96 = AXIS2_PLACEMENT_3D ( 'NONE', #106, #24, #149 ) ;
#97 = CARTESIAN_POINT ( 'NONE',  ( 0.000000000000000000, 0.000000000000000000, 0.000000000000000000 ) ) ;
#98 = DIMENSIONAL_EXPONENTS ( 1.000000000000000000, 0.000000000000000000, 0.000000000000000000, 0.000000000000000000, 0.000000000000000000, 0.000000000000000000, 0.000000000000000000 ) ;
#99 =( GEOMETRIC_REPRESENTATION_CONTEXT ( 3 ) GLOBAL_UNCERTAINTY_ASSIGNED_CONTEXT ( ( #136 ) ) GLOBAL_UNIT_ASSIGNED_CONTEXT ( ( #132, #114, #164 ) ) REPRESENTATION_CONTEXT ( 'NONE', 'WORKASPACE' ) );
#100 = ORIENTED_EDGE ( 'NONE', *, *, #81, .T. ) ;
#101 = AXIS2_PLACEMENT_3D ( 'NONE', #165, #105, #92 ) ;
#102 = ORIENTED_EDGE ( 'NONE', *, *, #145, .T. ) ;
#103 = DIRECTION ( 'NONE',  ( -1.000000000000000000, 1.224646799147351975E-16, 0.000000000000000000 ) ) ;
#104 = CARTESIAN_POINT ( 'NONE',  ( 0.6023622047244094890, 0.000000000000000000, 0.000000000000000000 ) ) ;
#105 = DIRECTION ( 'NONE',  ( 0.000000000000000000, 0.000000000000000000, 1.000000000000000000 ) ) ;
#106 = CARTESIAN_POINT ( 'NONE',  ( 0.000000000000000000, 0.000000000000000000, 0.000000000000000000 ) ) ;
#107 = AXIS2_PLACEMENT_3D ( 'NONE', #30, #133, #89 ) ;
#108 = DIRECTION ( 'NONE',  ( 0.000000000000000000, 0.000000000000000000, 1.000000000000000000 ) ) ;
#109 = CLOSED_SHELL ( 'NONE', ( #58, #157, #52, #17 ) ) ;
#110 = DIRECTION ( 'NONE',  ( 0.000000000000000000, 0.000000000000000000, 1.000000000000000000 ) ) ;
#111 = TOROIDAL_SURFACE ( 'NONE', #28, 0.6023622047244094890, 0.05118110236220464737 ) ;
#112 = CARTESIAN_POINT ( 'NONE',  ( -0.5511811023622048555, 6.750021727583837982E-17, -6.267877318470698664E-18 ) ) ;
#113 = AXIS2_PLACEMENT_3D ( 'NONE', #37, #161, #73 ) ;
#114 =( NAMED_UNIT ( * ) PLANE_ANGLE_UNIT ( ) SI_UNIT ( $, .RADIAN. ) );
#115 = EDGE_LOOP ( 'NONE', ( #74, #131, #59, #5 ) ) ;
#116 = CARTESIAN_POINT ( 'NONE',  ( -0.6023622047244094890, 7.376809459430907463E-17, 0.000000000000000000 ) ) ;
#117 = AXIS2_PLACEMENT_3D ( 'NONE', #116, #47, #103 ) ;
#118 = DIRECTION ( 'NONE',  ( 0.000000000000000000, 0.000000000000000000, 1.000000000000000000 ) ) ;
#119 = CIRCLE ( 'NONE', #87, 0.6535433070866142335 ) ;
#120 = VERTEX_POINT ( 'NONE', #112 ) ;
#121 = SURFACE_STYLE_FILL_AREA ( #36 ) ;
#122 = CARTESIAN_POINT ( 'NONE',  ( 0.6535433070866142335, 0.000000000000000000, 0.000000000000000000 ) ) ;
#123 = PRODUCT ( 'FMW75GG01_3D', 'FMW75GG01_3D', '', ( #147 ) ) ;
#124 =( NAMED_UNIT ( * ) SI_UNIT ( $, .STERADIAN. ) SOLID_ANGLE_UNIT ( ) );
#125 = ORIENTED_EDGE ( 'NONE', *, *, #134, .F. ) ;
#126 = EDGE_CURVE ( 'NONE', #85, #120, #138, .T. ) ;
#127 = MANIFOLD_SOLID_BREP ( 'Sweep1', #109 ) ;
#128 = CIRCLE ( 'NONE', #156, 0.5511811023622048555 ) ;
#129 = CARTESIAN_POINT ( 'NONE',  ( 0.000000000000000000, 0.000000000000000000, -6.267877318470695582E-18 ) ) ;
#130 =( GEOMETRIC_REPRESENTATION_CONTEXT ( 3 ) GLOBAL_UNCERTAINTY_ASSIGNED_CONTEXT ( ( #139 ) ) GLOBAL_UNIT_ASSIGNED_CONTEXT ( ( #45, #148, #124 ) ) REPRESENTATION_CONTEXT ( 'NONE', 'WORKASPACE' ) );
#131 = ORIENTED_EDGE ( 'NONE', *, *, #72, .T. ) ;
#132 =( CONVERSION_BASED_UNIT ( 'INCH', #64 ) LENGTH_UNIT ( ) NAMED_UNIT ( #98 ) );
#133 = DIRECTION ( 'NONE',  ( 0.000000000000000000, 0.000000000000000000, 1.000000000000000000 ) ) ;
#134 = EDGE_CURVE ( 'NONE', #70, #85, #65, .T. ) ;
#135 = DIRECTION ( 'NONE',  ( 0.000000000000000000, 0.000000000000000000, -1.000000000000000000 ) ) ;
#136 = UNCERTAINTY_MEASURE_WITH_UNIT (LENGTH_MEASURE( 1.000000000000000082E-05 ), #132, 'distance_accuracy_value', 'NONE');
#137 = EDGE_CURVE ( 'NONE', #120, #85, #19, .T. ) ;
#138 = CIRCLE ( 'NONE', #113, 0.05118110236220468900 ) ;
#139 = UNCERTAINTY_MEASURE_WITH_UNIT (LENGTH_MEASURE( 1.000000000000000082E-05 ), #45, 'distance_accuracy_value', 'NONE');
#140 = CARTESIAN_POINT ( 'NONE',  ( -0.6535433070866142335, 8.003597191277976945E-17, 0.000000000000000000 ) ) ;
#141 =( NAMED_UNIT ( * ) PLANE_ANGLE_UNIT ( ) SI_UNIT ( $, .RADIAN. ) );
#142 = ORIENTED_EDGE ( 'NONE', *, *, #137, .F. ) ;
#143 = AXIS2_PLACEMENT_3D ( 'NONE', #46, #31, #90 ) ;
#144 = SURFACE_SIDE_STYLE ('',( #86 ) ) ;
#145 = EDGE_CURVE ( 'NONE', #120, #88, #128, .T. ) ;
#146 = ORIENTED_EDGE ( 'NONE', *, *, #81, .F. ) ;
#147 = PRODUCT_CONTEXT ( 'NONE', #167, 'mechanical' ) ;
#148 =( NAMED_UNIT ( * ) PLANE_ANGLE_UNIT ( ) SI_UNIT ( $, .RADIAN. ) );
#149 = DIRECTION ( 'NONE',  ( 1.000000000000000000, 0.000000000000000000, 0.000000000000000000 ) ) ;
#150 = FILL_AREA_STYLE_COLOUR ( '', #82 ) ;
#151 = EDGE_CURVE ( 'NONE', #70, #88, #57, .T. ) ;
#152 = DIRECTION ( 'NONE',  ( 1.000000000000000000, 0.000000000000000000, 0.000000000000000000 ) ) ;
#153 = DIRECTION ( 'NONE',  ( 0.000000000000000000, 0.000000000000000000, 1.000000000000000000 ) ) ;
#154 = DIMENSIONAL_EXPONENTS ( 1.000000000000000000, 0.000000000000000000, 0.000000000000000000, 0.000000000000000000, 0.000000000000000000, 0.000000000000000000, 0.000000000000000000 ) ;
#155 = DIRECTION ( 'NONE',  ( 0.000000000000000000, 0.000000000000000000, 1.000000000000000000 ) ) ;
#156 = AXIS2_PLACEMENT_3D ( 'NONE', #20, #108, #66 ) ;
#157 = ADVANCED_FACE ( 'NONE', ( #10 ), #111, .T. ) ;
#158 = ADVANCED_BREP_SHAPE_REPRESENTATION ( 'FMW75GG01_3D', ( #127, #107 ), #130 ) ;
#159 = AXIS2_PLACEMENT_3D ( 'NONE', #77, #153, #71 ) ;
#160 = ORIENTED_EDGE ( 'NONE', *, *, #72, .F. ) ;
#161 = DIRECTION ( 'NONE',  ( 1.224646799147353207E-16, 1.000000000000000000, -0.000000000000000000 ) ) ;
#162 = PRESENTATION_LAYER_ASSIGNMENT (  '', '', ( #67 ) ) ;
#163 = DIRECTION ( 'NONE',  ( 0.000000000000000000, 0.000000000000000000, 1.000000000000000000 ) ) ;
#164 =( NAMED_UNIT ( * ) SI_UNIT ( $, .STERADIAN. ) SOLID_ANGLE_UNIT ( ) );
#165 = CARTESIAN_POINT ( 'NONE',  ( 0.000000000000000000, 0.000000000000000000, 0.000000000000000000 ) ) ;
#166 = FACE_OUTER_BOUND ( 'NONE', #18, .T. ) ;
#167 = APPLICATION_CONTEXT ( 'automotive_design' ) ;
ENDSEC;
END-ISO-10303-21;
